999
dxfrw 0.6.3
  0
SECTION
  2
HEADER
  9
$ACADVER
  1
AC1021
  9
$DWGCODEPAGE
  3
ANSI_1252
  9
$INSBASE
 10
0
 20
0
 30
0
  9
$EXTMIN
 10
413.943
 20
35.1105
 30
0
  9
$EXTMAX
 10
596.4075
 20
118.62
 30
0
  9
$LIMMIN
 10
0
 20
0
  9
$LIMMAX
 10
420
 20
297
  9
$ORTHOMODE
 70
    0
  9
$REGENMODE
 70
    1
  9
$FILLMODE
 70
    1
  9
$QTEXTMODE
 70
    0
  9
$MIRRTEXT
 70
    0
  9
$LTSCALE
 40
1
  9
$ATTMODE
 70
    0
  9
$TEXTSIZE
 40
2.5
  9
$TRACEWID
 40
15.68
  9
$TEXTSTYLE
  7
STANDARD
  9
$CLAYER
  8
pocket-0.5mm
  9
$CELTYPE
  6
BYLAYER
  9
$CECOLOR
 62
  256
  9
$CELTSCALE
 40
1
  9
$DISPSILH
 70
    0
  9
$DIMSCALE
 40
2.5
  9
$DIMASZ
 40
2.5
  9
$DIMEXO
 40
0.625
  9
$DIMDLI
 40
3.75
  9
$DIMRND
 40
0
  9
$DIMDLE
 40
0
  9
$DIMEXE
 40
1.25
  9
$DIMTP
 40
0
  9
$DIMTM
 40
0
  9
$DIMTXT
 40
2.5
  9
$DIMCEN
 40
2.5
  9
$DIMTSZ
 40
0
  9
$DIMTOL
 70
    0
  9
$DIMLIM
 70
    0
  9
$DIMTIH
 70
    0
  9
$DIMTOH
 70
    0
  9
$DIMSE1
 70
    0
  9
$DIMSE2
 70
    0
  9
$DIMTAD
 70
    1
  9
$DIMZIN
 70
    8
  9
$DIMBLK
  1

  9
$DIMASO
 70
    1
  9
$DIMSHO
 70
    1
  9
$DIMPOST
  1

  9
$DIMAPOST
  1

  9
$DIMALT
 70
    0
  9
$DIMALTD
 70
    3
  9
$DIMALTF
 40
0.03937
  9
$DIMLFAC
 40
1
  9
$DIMTOFL
 70
    1
  9
$DIMTVP
 40
0
  9
$DIMTIX
 70
    0
  9
$DIMSOXD
 70
    0
  9
$DIMSAH
 70
    0
  9
$DIMBLK1
  1

  9
$DIMBLK2
  1

  9
$DIMSTYLE
  2
Standard
  9
$DIMCLRD
 70
    0
  9
$DIMCLRE
 70
    0
  9
$DIMCLRT
 70
    0
  9
$DIMTFAC
 40
1
  9
$DIMGAP
 40
0.625
  9
$DIMJUST
 70
    0
  9
$DIMSD1
 70
    0
  9
$DIMSD2
 70
    0
  9
$DIMTOLJ
 70
    0
  9
$DIMTZIN
 70
    8
  9
$DIMALTZ
 70
    0
  9
$DIMALTTZ
 70
    0
  9
$DIMUPT
 70
    0
  9
$DIMDEC
 70
    2
  9
$DIMTDEC
 70
    2
  9
$DIMALTU
 70
    2
  9
$DIMALTTD
 70
    3
  9
$DIMTXSTY
  7
STANDARD
  9
$DIMAUNIT
 70
    0
  9
$DIMADEC
 70
    0
  9
$DIMALTRND
 40
0
  9
$DIMAZIN
 70
    0
  9
$DIMDSEP
 70
   44
  9
$DIMATFIT
 70
    3
  9
$DIMFRAC
 70
    0
  9
$DIMLDRBLK
  1
STANDARD
  9
$DIMLUNIT
 70
    2
  9
$DIMLWD
 70
   -2
  9
$DIMLWE
 70
   -2
  9
$DIMTMOVE
 70
    0
  9
$DIMFXL
 40
1
  9
$DIMFXLON
 70
    0
  9
$DIMJOGANG
 40
0.7854
  9
$DIMTFILL
 70
    0
  9
$DIMTFILLCLR
 70
    0
  9
$DIMARCSYM
 70
    0
  9
$DIMLTYPE
  6

  9
$DIMLTEX1
  6

  9
$DIMLTEX2
  6

  9
$LUNITS
 70
    2
  9
$LUPREC
 70
    4
  9
$SKETCHINC
 40
1
  9
$FILLETRAD
 40
0
  9
$AUNITS
 70
    0
  9
$AUPREC
 70
    2
  9
$MENU
  1
.
  9
$ELEVATION
 40
0
  9
$PELEVATION
 40
0
  9
$THICKNESS
 40
0
  9
$LIMCHECK
 70
    0
  9
$CHAMFERA
 40
0
  9
$CHAMFERB
 40
0
  9
$CHAMFERC
 40
0
  9
$CHAMFERD
 40
0
  9
$SKPOLY
 70
    0
  9
$USRTIMER
 70
    1
  9
$ANGBASE
 50
0
  9
$ANGDIR
 70
    0
  9
$PDMODE
 70
   34
  9
$PDSIZE
 40
0
  9
$PLINEWID
 40
0
  9
$SPLFRAME
 70
    0
  9
$SPLINETYPE
 70
    2
  9
$SPLINESEGS
 70
    8
  9
$HANDSEED
  5
20000
  9
$SURFTAB1
 70
    6
  9
$SURFTAB2
 70
    6
  9
$SURFTYPE
 70
    6
  9
$SURFU
 70
    6
  9
$SURFV
 70
    6
  9
$UCSBASE
  2

  9
$UCSNAME
  2

  9
$UCSORG
 10
0
 20
0
 30
0
  9
$UCSXDIR
 10
1
 20
0
 30
0
  9
$UCSYDIR
 10
0
 20
1
 30
0
  9
$UCSORTHOREF
  2

  9
$UCSORTHOVIEW
 70
    0
  9
$UCSORGTOP
 10
0
 20
0
 30
0
  9
$UCSORGBOTTOM
 10
0
 20
0
 30
0
  9
$UCSORGLEFT
 10
0
 20
0
 30
0
  9
$UCSORGRIGHT
 10
0
 20
0
 30
0
  9
$UCSORGFRONT
 10
0
 20
0
 30
0
  9
$UCSORGBACK
 10
0
 20
0
 30
0
  9
$PUCSBASE
  2

  9
$PUCSNAME
  2

  9
$PUCSORG
 10
0
 20
0
 30
0
  9
$PUCSXDIR
 10
1
 20
0
 30
0
  9
$PUCSYDIR
 10
0
 20
1
 30
0
  9
$PUCSORTHOREF
  2

  9
$PUCSORTHOVIEW
 70
    0
  9
$PUCSORGTOP
 10
0
 20
0
 30
0
  9
$PUCSORGBOTTOM
 10
0
 20
0
 30
0
  9
$PUCSORGLEFT
 10
0
 20
0
 30
0
  9
$PUCSORGRIGHT
 10
0
 20
0
 30
0
  9
$PUCSORGFRONT
 10
0
 20
0
 30
0
  9
$PUCSORGBACK
 10
0
 20
0
 30
0
  9
$USERI1
 70
    0
  9
$USERI2
 70
    0
  9
$USERI3
 70
    0
  9
$USERI4
 70
    0
  9
$USERI5
 70
    0
  9
$USERR1
 40
0
  9
$USERR2
 40
0
  9
$USERR3
 40
0
  9
$USERR4
 40
0
  9
$USERR5
 40
0
  9
$WORLDVIEW
 70
    1
  9
$SHADEDGE
 70
    3
  9
$SHADEDIF
 70
   70
  9
$TILEMODE
 70
    1
  9
$MAXACTVP
 70
   64
  9
$PINSBASE
 10
0
 20
0
 30
0
  9
$PLIMCHECK
 70
    0
  9
$PEXTMIN
 10
0
 20
0
 30
0
  9
$PEXTMAX
 10
0
 20
0
 30
0
  9
$GRIDMODE
 70
    0
  9
$SNAPSTYLE
 70
    0
  9
$PLIMMIN
 10
0
 20
0
  9
$PLIMMAX
 10
210
 20
297
  9
$UNITMODE
 70
    0
  9
$VISRETAIN
 70
    1
  9
$PLINEGEN
 70
    0
  9
$PSLTSCALE
 70
    1
  9
$TREEDEPTH
 70
 3020
  9
$CMLSTYLE
  2
Standard
  9
$CMLJUST
 70
    0
  9
$CMLSCALE
 40
20
  9
$PROXYGRAPHICS
 70
    1
  9
$MEASUREMENT
 70
    1
  9
$CELWEIGHT
370
   -1
  9
$ENDCAPS
280
    0
  9
$JOINSTYLE
280
    0
  9
$LWDISPLAY
290
    0
  9
$INSUNITS
 70
    4
  9
$HYPERLINKBASE
  1

  9
$STYLESHEET
  1

  9
$XEDIT
290
    1
  9
$CEPSNTYPE
380
    0
  9
$PSTYLEMODE
290
    1
  9
$EXTNAMES
290
    1
  9
$PSVPSCALE
 40
1
  9
$OLESTARTUP
290
    0
  9
$SORTENTS
280
  127
  9
$INDEXCTL
280
    0
  9
$HIDETEXT
280
    1
  9
$XCLIPFRAME
290
    0
  9
$HALOGAP
280
    0
  9
$OBSCOLOR
 70
  257
  9
$OBSLTYPE
280
    0
  9
$INTERSECTIONDISPLAY
280
    0
  9
$INTERSECTIONCOLOR
 70
  257
  9
$DIMASSOC
280
    1
  9
$PROJECTNAME
  1

  9
$CAMERADISPLAY
290
    0
  9
$LENSLENGTH
 40
50
  9
$CAMERAHEIGHT
 40
0
  9
$STEPSPERSEC
 40
2
  9
$STEPSIZE
 40
50
  9
$3DDWFPREC
 40
2
  9
$PSOLWIDTH
 40
5
  9
$PSOLHEIGHT
 40
80
  9
$LOFTANG1
 40
1.570796326794897
  9
$LOFTANG2
 40
1.570796326794897
  9
$LOFTMAG1
 40
0
  9
$LOFTMAG2
 40
0
  9
$LOFTPARAM
 70
    7
  9
$LOFTNORMALS
280
    1
  9
$LATITUDE
 40
1
  9
$LONGITUDE
 40
1
  9
$NORTHDIRECTION
 40
0
  9
$TIMEZONE
 70
-8000
  9
$LIGHTGLYPHDISPLAY
280
    1
  9
$TILEMODELIGHTSYNCH
280
    1
  9
$SOLIDHIST
280
    1
  9
$SHOWHIST
280
    1
  9
$DWFFRAME
280
    2
  9
$DGNFRAME
280
    0
  9
$REALWORLDSCALE
290
    1
  9
$INTERFERECOLOR
 62
    1
  9
$CSHADOW
280
    0
  9
$SHADOWPLANELOCATION
 40
0
  0
ENDSEC
  0
SECTION
  2
CLASSES
  0
ENDSEC
  0
SECTION
  2
TABLES
  0
TABLE
  2
VPORT
  5
8
330
0
100
AcDbSymbolTable
 70
    1
  0
VPORT
  5
31
330
2
100
AcDbSymbolTableRecord
100
AcDbViewportTableRecord
  2
*ACTIVE
 70
    0
 10
0
 20
0
 11
1
 21
1
 12
330.6628677589211
 22
67.41481498962727
 13
0
 23
0
 14
10
 24
10
 15
10
 25
10
 16
0
 26
0
 36
1
 17
0
 27
0
 37
0
 40
321.3374754836989
 41
0.9866989117291415
 42
50
 43
0
 44
0
 50
0
 51
0
 71
    0
 72
  100
 73
    1
 74
    3
 75
    0
 76
    0
 77
    0
 78
    0
281
    0
 65
    1
110
0
120
0
130
0
111
1
121
0
131
0
112
0
122
1
132
0
 79
    0
146
0
348
10020
 60
    7
 61
    5
292
1
282
    1
141
0
142
0
 63
  250
421
3358443
  0
ENDTAB
  0
TABLE
  2
LTYPE
  5
5
330
0
100
AcDbSymbolTable
 70
    4
  0
LTYPE
  5
14
330
5
100
AcDbSymbolTableRecord
100
AcDbLinetypeTableRecord
  2
ByBlock
 70
    0
  3

 72
   65
 73
    0
 40
0
  0
LTYPE
  5
15
330
5
100
AcDbSymbolTableRecord
100
AcDbLinetypeTableRecord
  2
ByLayer
 70
    0
  3

 72
   65
 73
    0
 40
0
  0
LTYPE
  5
16
330
5
100
AcDbSymbolTableRecord
100
AcDbLinetypeTableRecord
  2
Continuous
 70
    0
  3
Solid line
 72
   65
 73
    0
 40
0
  0
LTYPE
  5
32
330
5
100
AcDbSymbolTableRecord
100
AcDbLinetypeTableRecord
  2
DOT
 70
    0
  3
Dot . . . . . . . . . . . . . . . . . . . . . .
 72
   65
 73
    2
 40
6.35
 49
0
 74
    0
 49
-6.35
 74
    0
  0
LTYPE
  5
33
330
5
100
AcDbSymbolTableRecord
100
AcDbLinetypeTableRecord
  2
DOTTINY
 70
    0
  3
Dot (.15x) .....................................
 72
   65
 73
    2
 40
0.9525
 49
0
 74
    0
 49
-0.9525
 74
    0
  0
LTYPE
  5
34
330
5
100
AcDbSymbolTableRecord
100
AcDbLinetypeTableRecord
  2
DOT2
 70
    0
  3
Dot (.5x) .....................................
 72
   65
 73
    2
 40
3.175
 49
0
 74
    0
 49
-3.175
 74
    0
  0
LTYPE
  5
35
330
5
100
AcDbSymbolTableRecord
100
AcDbLinetypeTableRecord
  2
DOTX2
 70
    0
  3
Dot (2x) .  .  .  .  .  .  .  .  .  .  .  .  .
 72
   65
 73
    2
 40
12.7
 49
0
 74
    0
 49
-12.7
 74
    0
  0
LTYPE
  5
36
330
5
100
AcDbSymbolTableRecord
100
AcDbLinetypeTableRecord
  2
DASHED
 70
    0
  3
Dashed _ _ _ _ _ _ _ _ _ _ _ _ _ _ _ _ _
 72
   65
 73
    2
 40
19.05
 49
12.7
 74
    0
 49
-6.35
 74
    0
  0
LTYPE
  5
37
330
5
100
AcDbSymbolTableRecord
100
AcDbLinetypeTableRecord
  2
DASHEDTINY
 70
    0
  3
Dashed (.15x) _ _ _ _ _ _ _ _ _ _ _ _ _ _ _ _ _
 72
   65
 73
    2
 40
2.8575
 49
1.905
 74
    0
 49
-0.9525
 74
    0
  0
LTYPE
  5
38
330
5
100
AcDbSymbolTableRecord
100
AcDbLinetypeTableRecord
  2
DASHED2
 70
    0
  3
Dashed (.5x) _ _ _ _ _ _ _ _ _ _ _ _ _ _ _ _ _
 72
   65
 73
    2
 40
9.524999999999999
 49
6.35
 74
    0
 49
-3.175
 74
    0
  0
LTYPE
  5
39
330
5
100
AcDbSymbolTableRecord
100
AcDbLinetypeTableRecord
  2
DASHEDX2
 70
    0
  3
Dashed (2x) ____  ____  ____  ____  ____  ___
 72
   65
 73
    2
 40
38.09999999999999
 49
25.4
 74
    0
 49
-12.7
 74
    0
  0
LTYPE
  5
3A
330
5
100
AcDbSymbolTableRecord
100
AcDbLinetypeTableRecord
  2
DASHDOT
 70
    0
  3
Dash dot __ . __ . __ . __ . __ . __ . __ . __
 72
   65
 73
    4
 40
25.4
 49
12.7
 74
    0
 49
-6.35
 74
    0
 49
0
 74
    0
 49
-6.35
 74
    0
  0
LTYPE
  5
3B
330
5
100
AcDbSymbolTableRecord
100
AcDbLinetypeTableRecord
  2
DASHDOTTINY
 70
    0
  3
Dash dot (.15x) _._._._._._._._._._._._._._._.
 72
   65
 73
    4
 40
3.81
 49
1.905
 74
    0
 49
-0.9525
 74
    0
 49
0
 74
    0
 49
-0.9525
 74
    0
  0
LTYPE
  5
3C
330
5
100
AcDbSymbolTableRecord
100
AcDbLinetypeTableRecord
  2
DASHDOT2
 70
    0
  3
Dash dot (.5x) _._._._._._._._._._._._._._._.
 72
   65
 73
    4
 40
12.7
 49
6.35
 74
    0
 49
-3.175
 74
    0
 49
0
 74
    0
 49
-3.175
 74
    0
  0
LTYPE
  5
3D
330
5
100
AcDbSymbolTableRecord
100
AcDbLinetypeTableRecord
  2
DASHDOTX2
 70
    0
  3
Dash dot (2x) ____  .  ____  .  ____  .  ___
 72
   65
 73
    4
 40
50.8
 49
25.4
 74
    0
 49
-12.7
 74
    0
 49
0
 74
    0
 49
-12.7
 74
    0
  0
LTYPE
  5
3E
330
5
100
AcDbSymbolTableRecord
100
AcDbLinetypeTableRecord
  2
DIVIDE
 70
    0
  3
Divide ____ . . ____ . . ____ . . ____ . . ____
 72
   65
 73
    6
 40
31.75
 49
12.7
 74
    0
 49
-6.35
 74
    0
 49
0
 74
    0
 49
-6.35
 74
    0
 49
0
 74
    0
 49
-6.35
 74
    0
  0
LTYPE
  5
3F
330
5
100
AcDbSymbolTableRecord
100
AcDbLinetypeTableRecord
  2
DIVIDETINY
 70
    0
  3
Divide (.15x) __..__..__..__..__..__..__..__.._
 72
   65
 73
    6
 40
4.7625
 49
1.905
 74
    0
 49
-0.9525
 74
    0
 49
0
 74
    0
 49
-0.9525
 74
    0
 49
0
 74
    0
 49
-0.9525
 74
    0
  0
LTYPE
  5
40
330
5
100
AcDbSymbolTableRecord
100
AcDbLinetypeTableRecord
  2
DIVIDE2
 70
    0
  3
Divide (.5x) __..__..__..__..__..__..__..__.._
 72
   65
 73
    6
 40
15.875
 49
6.35
 74
    0
 49
-3.175
 74
    0
 49
0
 74
    0
 49
-3.175
 74
    0
 49
0
 74
    0
 49
-3.175
 74
    0
  0
LTYPE
  5
41
330
5
100
AcDbSymbolTableRecord
100
AcDbLinetypeTableRecord
  2
DIVIDEX2
 70
    0
  3
Divide (2x) ________  .  .  ________  .  .  _
 72
   65
 73
    6
 40
63.5
 49
25.4
 74
    0
 49
-12.7
 74
    0
 49
0
 74
    0
 49
-12.7
 74
    0
 49
0
 74
    0
 49
-12.7
 74
    0
  0
LTYPE
  5
42
330
5
100
AcDbSymbolTableRecord
100
AcDbLinetypeTableRecord
  2
BORDER
 70
    0
  3
Border __ __ . __ __ . __ __ . __ __ . __ __ .
 72
   65
 73
    6
 40
44.45
 49
12.7
 74
    0
 49
-6.35
 74
    0
 49
12.7
 74
    0
 49
-6.35
 74
    0
 49
0
 74
    0
 49
-6.35
 74
    0
  0
LTYPE
  5
43
330
5
100
AcDbSymbolTableRecord
100
AcDbLinetypeTableRecord
  2
BORDERTINY
 70
    0
  3
Border (.15x) __.__.__.__.__.__.__.__.__.__.__.
 72
   65
 73
    6
 40
6.6675
 49
1.905
 74
    0
 49
-0.9525
 74
    0
 49
1.905
 74
    0
 49
-0.9525
 74
    0
 49
0
 74
    0
 49
-0.9525
 74
    0
  0
LTYPE
  5
44
330
5
100
AcDbSymbolTableRecord
100
AcDbLinetypeTableRecord
  2
BORDER2
 70
    0
  3
Border (.5x) __.__.__.__.__.__.__.__.__.__.__.
 72
   65
 73
    6
 40
22.225
 49
6.35
 74
    0
 49
-3.175
 74
    0
 49
6.35
 74
    0
 49
-3.175
 74
    0
 49
0
 74
    0
 49
-3.175
 74
    0
  0
LTYPE
  5
45
330
5
100
AcDbSymbolTableRecord
100
AcDbLinetypeTableRecord
  2
BORDERX2
 70
    0
  3
Border (2x) ____  ____  .  ____  ____  .  ___
 72
   65
 73
    6
 40
88.89999999999999
 49
25.4
 74
    0
 49
-12.7
 74
    0
 49
25.4
 74
    0
 49
-12.7
 74
    0
 49
0
 74
    0
 49
-12.7
 74
    0
  0
LTYPE
  5
46
330
5
100
AcDbSymbolTableRecord
100
AcDbLinetypeTableRecord
  2
CENTER
 70
    0
  3
Center ____ _ ____ _ ____ _ ____ _ ____ _ ____
 72
   65
 73
    4
 40
50.8
 49
31.75
 74
    0
 49
-6.35
 74
    0
 49
6.35
 74
    0
 49
-6.35
 74
    0
  0
LTYPE
  5
47
330
5
100
AcDbSymbolTableRecord
100
AcDbLinetypeTableRecord
  2
CENTERTINY
 70
    0
  3
Center (.15x) ___ _ ___ _ ___ _ ___ _ ___ _ ___
 72
   65
 73
    4
 40
7.619999999999999
 49
4.7625
 74
    0
 49
-0.9525
 74
    0
 49
0.9525
 74
    0
 49
-0.9525
 74
    0
  0
LTYPE
  5
48
330
5
100
AcDbSymbolTableRecord
100
AcDbLinetypeTableRecord
  2
CENTER2
 70
    0
  3
Center (.5x) ___ _ ___ _ ___ _ ___ _ ___ _ ___
 72
   65
 73
    4
 40
28.575
 49
19.05
 74
    0
 49
-3.175
 74
    0
 49
3.175
 74
    0
 49
-3.175
 74
    0
  0
LTYPE
  5
49
330
5
100
AcDbSymbolTableRecord
100
AcDbLinetypeTableRecord
  2
CENTERX2
 70
    0
  3
Center (2x) ________  __  ________  __  _____
 72
   65
 73
    4
 40
101.6
 49
63.5
 74
    0
 49
-12.7
 74
    0
 49
12.7
 74
    0
 49
-12.7
 74
    0
  0
ENDTAB
  0
TABLE
  2
LAYER
  5
2
330
0
100
AcDbSymbolTable
 70
    1
  0
LAYER
  5
10
330
2
100
AcDbSymbolTableRecord
100
AcDbLayerTableRecord
  2
0
 70
    0
 62
    7
  6
CONTINUOUS
370
   -3
390
F
  0
LAYER
  5
4A
330
2
100
AcDbSymbolTableRecord
100
AcDbLayerTableRecord
  2
pocket-0.5mm
 70
    0
 62
    4
  6
CONTINUOUS
370
    0
390
F
  0
LAYER
  5
4B
330
2
100
AcDbSymbolTableRecord
100
AcDbLayerTableRecord
  2
profiling
 70
    0
 62
    3
  6
CONTINUOUS
370
    0
390
F
  0
LAYER
  5
4C
330
2
100
AcDbSymbolTableRecord
100
AcDbLayerTableRecord
  2
vcut
 70
    0
 62
    6
  6
CONTINUOUS
370
    0
390
F
  0
ENDTAB
  0
TABLE
  2
STYLE
  5
3
330
0
100
AcDbSymbolTable
 70
    3
  0
STYLE
  5
4D
330
2
100
AcDbSymbolTableRecord
100
AcDbTextStyleTableRecord
  2
Standard
 70
    0
 40
0
 41
1
 50
0
 71
    0
 42
1
  3
txt
  4

  0
ENDTAB
  0
TABLE
  2
VIEW
  5
6
330
0
100
AcDbSymbolTable
 70
    0
  0
ENDTAB
  0
TABLE
  2
UCS
  5
7
330
0
100
AcDbSymbolTable
 70
    0
  0
ENDTAB
  0
TABLE
  2
APPID
  5
9
330
0
100
AcDbSymbolTable
 70
    1
  0
APPID
  5
12
330
9
100
AcDbSymbolTableRecord
100
AcDbRegAppTableRecord
  2
ACAD
 70
    0
  0
APPID
  5
4E
330
9
100
AcDbSymbolTableRecord
100
AcDbRegAppTableRecord
  2
LibreCad
 70
    0
  0
ENDTAB
  0
TABLE
  2
DIMSTYLE
  5
A
330
0
100
AcDbSymbolTable
 70
    1
100
AcDbDimStyleTable
 71
    1
  0
DIMSTYLE
105
4F
330
A
100
AcDbSymbolTableRecord
100
AcDbDimStyleTableRecord
  2
Standard
 70
    0
 40
2.5
 41
2.5
 42
0.625
 43
0.38
 44
1.25
 45
0
 46
0
 47
0
 48
0
 49
1
140
2.5
141
0.09
142
0
143
25.4
144
1
145
0
146
1
147
0.625
148
0
 71
    0
 72
    0
 73
    0
 74
    1
 75
    0
 76
    0
 77
    0
 78
    8
 79
    0
170
    0
171
    2
172
    0
173
    0
174
    0
175
    0
176
    0
177
    0
178
    0
179
    0
271
    2
272
    4
273
    2
274
    2
275
    0
276
    0
277
    2
278
   44
279
    0
280
    0
281
    0
282
    0
283
    1
284
    0
285
    0
286
    0
288
    0
289
    3
340
STANDARD
341

371
   -2
372
   -2
  0
ENDTAB
  0
TABLE
  2
BLOCK_RECORD
  5
1
330
0
100
AcDbSymbolTable
 70
    2
  0
BLOCK_RECORD
  5
1F
330
1
100
AcDbSymbolTableRecord
100
AcDbBlockTableRecord
  2
*Model_Space
 70
    0
280
    1
281
    0
  0
BLOCK_RECORD
  5
1E
330
1
100
AcDbSymbolTableRecord
100
AcDbBlockTableRecord
  2
*Paper_Space
 70
    0
280
    1
281
    0
  0
ENDTAB
  0
ENDSEC
  0
SECTION
  2
BLOCKS
  0
BLOCK
  5
20
330
1F
100
AcDbEntity
  8
0
100
AcDbBlockBegin
  2
*Model_Space
 70
    0
 10
0
 20
0
 30
0
  3
*Model_Space
  1

  0
ENDBLK
  5
21
330
1F
100
AcDbEntity
  8
0
100
AcDbBlockEnd
  0
BLOCK
  5
1C
330
1B
100
AcDbEntity
  8
0
100
AcDbBlockBegin
  2
*Paper_Space
 70
    0
 10
0
 20
0
 30
0
  3
*Paper_Space
  1

  0
ENDBLK
  5
1D
330
1F
100
AcDbEntity
  8
0
100
AcDbBlockEnd
  0
ENDSEC
  0
SECTION
  2
ENTITIES
  0
LWPOLYLINE
  5
50
100
AcDbEntity
  8
pocket-0.5mm
  6
ByLayer
 62
  256
370
   -1
100
AcDbPolyline
 90
   32
 70
    1
 43
0
 10
506.43225
 20
96.738
 10
505.746
 20
96.5295
 10
505.113
 20
96.19125
 10
504.55875
 20
95.736
 10
504.1035
 20
95.18174999999999
 10
503.76525
 20
94.54875
 10
503.55675
 20
93.8625
 10
503.48625
 20
93.1485
 10
503.55675
 20
92.4345
 10
503.76525
 20
91.74825
 10
504.1035
 20
91.11525
 10
504.55875
 20
90.56100000000001
 10
505.113
 20
90.10575
 10
505.746
 20
89.7675
 10
506.43225
 20
89.559
 10
507.14625
 20
89.4885
 10
507.86025
 20
89.559
 10
508.5465
 20
89.7675
 10
509.1795
 20
90.10575
 10
509.73375
 20
90.56100000000001
 10
510.189
 20
91.11525
 10
510.52725
 20
91.74825
 10
510.73575
 20
92.4345
 10
510.80625
 20
93.1485
 10
510.73575
 20
93.8625
 10
510.52725
 20
94.54875
 10
510.189
 20
95.18174999999999
 10
509.73375
 20
95.736
 10
509.1795
 20
96.19125
 10
508.5465
 20
96.5295
 10
507.86025
 20
96.738
 10
507.14625
 20
96.8085
  0
LWPOLYLINE
  5
51
100
AcDbEntity
  8
pocket-0.5mm
  6
ByLayer
 62
  256
370
   -1
100
AcDbPolyline
 90
   32
 70
    1
 43
0
 10
506.43225
 20
64.17749999999999
 10
505.746
 20
63.969
 10
505.113
 20
63.63075
 10
504.55875
 20
63.1755
 10
504.1035
 20
62.62125
 10
503.76525
 20
61.98825
 10
503.55675
 20
61.302
 10
503.48625
 20
60.588
 10
503.55675
 20
59.874
 10
503.76525
 20
59.18775
 10
504.1035
 20
58.55475
 10
504.55875
 20
58.0005
 10
505.113
 20
57.54525
 10
505.746
 20
57.207
 10
506.43225
 20
56.9985
 10
507.14625
 20
56.928
 10
507.86025
 20
56.9985
 10
508.5465
 20
57.207
 10
509.1795
 20
57.54525
 10
509.73375
 20
58.0005
 10
510.189
 20
58.55475
 10
510.52725
 20
59.18775
 10
510.73575
 20
59.874
 10
510.80625
 20
60.588
 10
510.73575
 20
61.302
 10
510.52725
 20
61.98825
 10
510.189
 20
62.62125
 10
509.73375
 20
63.1755
 10
509.1795
 20
63.63075
 10
508.5465
 20
63.969
 10
507.86025
 20
64.17749999999999
 10
507.14625
 20
64.248
  0
LWPOLYLINE
  5
52
100
AcDbEntity
  8
profiling
  6
ByLayer
 62
  256
370
   -1
100
AcDbPolyline
 90
  318
 70
    1
 43
0
 10
576.11925
 20
41.0505
 10
576.11925
 20
41.0505
 10
576.11925
 20
41.0505
 10
574.3365
 20
40.04025
 10
574.3365
 20
40.04025
 10
574.3365
 20
40.04025
 10
572.50575
 20
39.1185
 10
572.50575
 20
39.1185
 10
572.50575
 20
39.1185
 10
570.63225
 20
38.28825
 10
570.63225
 20
38.28825
 10
570.63225
 20
38.28825
 10
568.7205
 20
37.551
 10
568.7205
 20
37.551
 10
568.7205
 20
37.551
 10
566.7742500000001
 20
36.90825
 10
566.7742500000001
 20
36.90825
 10
566.7742500000001
 20
36.90825
 10
564.79875
 20
36.3615
 10
564.79875
 20
36.3615
 10
564.79875
 20
36.3615
 10
562.79925
 20
35.91225
 10
562.79925
 20
35.91225
 10
562.79925
 20
35.91225
 10
560.78025
 20
35.562
 10
560.78025
 20
35.562
 10
560.78025
 20
35.562
 10
558.74625
 20
35.3115
 10
558.74625
 20
35.3115
 10
558.74625
 20
35.3115
 10
556.7025
 20
35.16075
 10
556.7025
 20
35.16075
 10
556.7025
 20
35.16075
 10
554.6535
 20
35.1105
 10
554.6535
 20
35.1105
 10
554.6535
 20
35.1105
 10
431.1105
 20
35.1105
 10
420.471
 20
35.1105
 10
420.471
 20
35.1105
 10
419.83125
 20
35.142
 10
419.83125
 20
35.142
 10
419.83125
 20
35.142
 10
419.83125
 20
35.142
 10
419.1975
 20
35.23575
 10
419.1975
 20
35.23575
 10
418.5765
 20
35.39175
 10
418.5765
 20
35.39175
 10
418.5765
 20
35.39175
 10
418.5765
 20
35.39175
 10
417.9735
 20
35.60775
 10
417.9735
 20
35.60775
 10
417.3945
 20
35.8815
 10
417.3945
 20
35.8815
 10
417.3945
 20
35.8815
 10
417.3945
 20
35.8815
 10
416.84475
 20
36.21075
 10
416.84475
 20
36.21075
 10
416.33025
 20
36.5925
 10
416.33025
 20
36.5925
 10
416.33025
 20
36.5925
 10
416.33025
 20
36.5925
 10
415.8555
 20
37.023
 10
415.8555
 20
37.023
 10
415.425
 20
37.49775
 10
415.425
 20
37.49775
 10
415.425
 20
37.49775
 10
415.425
 20
37.49775
 10
415.04325
 20
38.01225
 10
415.04325
 20
38.01225
 10
414.714
 20
38.562
 10
414.714
 20
38.562
 10
414.714
 20
38.562
 10
414.714
 20
38.562
 10
414.44025
 20
39.141
 10
414.44025
 20
39.141
 10
414.22425
 20
39.744
 10
414.22425
 20
39.744
 10
414.22425
 20
39.744
 10
414.22425
 20
39.744
 10
414.06825
 20
40.36575
 10
414.06825
 20
40.36575
 10
413.9745
 20
40.9995
 10
413.9745
 20
40.9995
 10
413.9745
 20
40.9995
 10
413.943
 20
41.63925
 10
413.943
 20
41.63925
 10
413.943
 20
41.63925
 10
413.943
 20
73.61324999999999
 10
413.943
 20
74.01975
 10
413.943
 20
74.42625
 10
413.943
 20
74.83275
 10
413.943
 20
75.23925
 10
413.943
 20
75.64575000000001
 10
413.943
 20
76.05225
 10
413.943
 20
76.45874999999999
 10
413.943
 20
76.86525
 10
413.943
 20
77.27175
 10
413.943
 20
77.67825000000001
 10
413.943
 20
78.08475
 10
413.943
 20
78.49124999999999
 10
413.943
 20
78.89775
 10
413.943
 20
79.30425
 10
413.943
 20
79.71075
 10
413.943
 20
80.11725
 10
413.943
 20
112.09125
 10
413.943
 20
112.09125
 10
413.943
 20
112.09125
 10
413.9745
 20
112.731
 10
413.9745
 20
112.731
 10
413.9745
 20
112.731
 10
414.06825
 20
113.36475
 10
414.06825
 20
113.36475
 10
414.22425
 20
113.9865
 10
414.22425
 20
113.9865
 10
414.22425
 20
113.9865
 10
414.22425
 20
113.9865
 10
414.44025
 20
114.5895
 10
414.44025
 20
114.5895
 10
414.714
 20
115.1685
 10
414.714
 20
115.1685
 10
414.714
 20
115.1685
 10
414.714
 20
115.1685
 10
415.04325
 20
115.71825
 10
415.04325
 20
115.71825
 10
415.425
 20
116.23275
 10
415.425
 20
116.23275
 10
415.425
 20
116.23275
 10
415.425
 20
116.23275
 10
415.8555
 20
116.7075
 10
415.8555
 20
116.7075
 10
416.33025
 20
117.138
 10
416.33025
 20
117.138
 10
416.33025
 20
117.138
 10
416.33025
 20
117.138
 10
416.84475
 20
117.51975
 10
416.84475
 20
117.51975
 10
417.3945
 20
117.849
 10
417.3945
 20
117.849
 10
417.3945
 20
117.849
 10
417.3945
 20
117.849
 10
417.9735
 20
118.12275
 10
417.9735
 20
118.12275
 10
417.9735
 20
118.12275
 10
418.5765
 20
118.33875
 10
418.5765
 20
118.33875
 10
418.5765
 20
118.33875
 10
418.5765
 20
118.33875
 10
419.19825
 20
118.49475
 10
419.19825
 20
118.49475
 10
419.832
 20
118.5885
 10
419.832
 20
118.5885
 10
419.832
 20
118.5885
 10
419.832
 20
118.5885
 10
420.47175
 20
118.62
 10
420.47175
 20
118.62
 10
431.11125
 20
118.62
 10
554.65425
 20
118.62
 10
554.65425
 20
118.62
 10
554.65425
 20
118.62
 10
556.70325
 20
118.56975
 10
556.70325
 20
118.56975
 10
556.70325
 20
118.56975
 10
558.747
 20
118.419
 10
558.747
 20
118.419
 10
558.747
 20
118.419
 10
560.7809999999999
 20
118.16775
 10
560.7809999999999
 20
118.16775
 10
560.7809999999999
 20
118.16775
 10
562.8
 20
117.8175
 10
562.8
 20
117.8175
 10
562.8
 20
117.8175
 10
564.7995
 20
117.36825
 10
564.7995
 20
117.36825
 10
564.7995
 20
117.36825
 10
566.775
 20
116.8215
 10
566.775
 20
116.8215
 10
566.775
 20
116.8215
 10
568.7212500000001
 20
116.17875
 10
568.7212500000001
 20
116.17875
 10
568.7212500000001
 20
116.17875
 10
570.633
 20
115.4415
 10
570.633
 20
115.4415
 10
570.633
 20
115.4415
 10
572.5065
 20
114.61125
 10
572.5065
 20
114.61125
 10
572.5065
 20
114.61125
 10
574.33725
 20
113.6895
 10
574.33725
 20
113.6895
 10
574.33725
 20
113.6895
 10
576.12
 20
112.67925
 10
576.12
 20
112.67925
 10
576.12
 20
112.67925
 10
577.85175
 20
111.58275
 10
577.85175
 20
111.58275
 10
577.85175
 20
111.58275
 10
579.52725
 20
110.403
 10
579.52725
 20
110.403
 10
579.52725
 20
110.403
 10
581.14275
 20
109.14225
 10
581.14275
 20
109.14225
 10
581.14275
 20
109.14225
 10
582.6944999999999
 20
107.8035
 10
582.6944999999999
 20
107.8035
 10
582.6944999999999
 20
107.8035
 10
584.17875
 20
106.3905
 10
584.17875
 20
106.3905
 10
584.17875
 20
106.3905
 10
585.59175
 20
104.90625
 10
585.59175
 20
104.90625
 10
585.59175
 20
104.90625
 10
586.9305000000001
 20
103.3545
 10
586.9305000000001
 20
103.3545
 10
586.9305000000001
 20
103.3545
 10
588.19125
 20
101.739
 10
588.19125
 20
101.739
 10
588.19125
 20
101.739
 10
589.371
 20
100.0635
 10
589.371
 20
100.0635
 10
589.371
 20
100.0635
 10
590.4675
 20
98.33175
 10
590.4675
 20
98.33175
 10
590.4675
 20
98.33175
 10
591.47775
 20
96.54900000000001
 10
591.47775
 20
96.54900000000001
 10
591.47775
 20
96.54900000000001
 10
592.3995
 20
94.71825
 10
592.3995
 20
94.71825
 10
592.3995
 20
94.71825
 10
593.22975
 20
92.84475
 10
593.22975
 20
92.84475
 10
593.22975
 20
92.84475
 10
593.967
 20
90.93300000000001
 10
593.967
 20
90.93300000000001
 10
593.967
 20
90.93300000000001
 10
594.60975
 20
88.98675
 10
594.60975
 20
88.98675
 10
594.60975
 20
88.98675
 10
595.1565000000001
 20
87.01125
 10
595.1565000000001
 20
87.01125
 10
595.1565000000001
 20
87.01125
 10
595.6057499999999
 20
85.01175000000001
 10
595.6057499999999
 20
85.01175000000001
 10
595.6057499999999
 20
85.01175000000001
 10
595.956
 20
82.99275
 10
595.956
 20
82.99275
 10
595.956
 20
82.99275
 10
596.2065
 20
80.95874999999999
 10
596.2065
 20
80.95874999999999
 10
596.2065
 20
80.95874999999999
 10
596.35725
 20
78.91500000000001
 10
596.35725
 20
78.91500000000001
 10
596.35725
 20
78.91500000000001
 10
596.4075
 20
76.866
 10
596.4075
 20
76.866
 10
596.4075
 20
76.866
 10
596.35725
 20
74.81699999999999
 10
596.35725
 20
74.81699999999999
 10
596.35725
 20
74.81699999999999
 10
596.2065
 20
72.77325
 10
596.2065
 20
72.77325
 10
596.2065
 20
72.77325
 10
595.956
 20
70.73925
 10
595.956
 20
70.73925
 10
595.956
 20
70.73925
 10
595.6057499999999
 20
68.72024999999999
 10
595.6057499999999
 20
68.72024999999999
 10
595.6057499999999
 20
68.72024999999999
 10
595.1565000000001
 20
66.72075
 10
595.1565000000001
 20
66.72075
 10
595.1565000000001
 20
66.72075
 10
594.60975
 20
64.74525
 10
594.60975
 20
64.74525
 10
594.60975
 20
64.74525
 10
593.967
 20
62.799
 10
593.967
 20
62.799
 10
593.967
 20
62.799
 10
593.22975
 20
60.88725
 10
593.22975
 20
60.88725
 10
593.22975
 20
60.88725
 10
592.3995
 20
59.01375
 10
592.3995
 20
59.01375
 10
592.3995
 20
59.01375
 10
591.47775
 20
57.183
 10
591.47775
 20
57.183
 10
591.47775
 20
57.183
 10
590.4675
 20
55.40025
 10
590.4675
 20
55.40025
 10
590.4675
 20
55.40025
 10
590.4675
 20
55.40025
 10
589.371
 20
53.6685
 10
589.371
 20
53.6685
 10
589.371
 20
53.6685
 10
588.19125
 20
51.993
 10
588.19125
 20
51.993
 10
588.19125
 20
51.993
 10
586.9305000000001
 20
50.3775
 10
586.9305000000001
 20
50.3775
 10
586.9305000000001
 20
50.3775
 10
585.59175
 20
48.82575
 10
585.59175
 20
48.82575
 10
585.59175
 20
48.82575
 10
584.17875
 20
47.3415
 10
584.17875
 20
47.3415
 10
584.17875
 20
47.3415
 10
582.6944999999999
 20
45.9285
 10
582.6944999999999
 20
45.9285
 10
582.6944999999999
 20
45.9285
 10
581.14275
 20
44.58975
 10
581.14275
 20
44.58975
 10
581.14275
 20
44.58975
 10
579.52725
 20
43.329
 10
579.52725
 20
43.329
 10
579.52725
 20
43.329
 10
577.85175
 20
42.14925
 10
577.85175
 20
42.14925
 10
577.85175
 20
42.14925
 10
577.85175
 20
42.14925
 10
576.12
 20
41.05275
  0
LWPOLYLINE
  5
53
100
AcDbEntity
  8
profiling
  6
ByLayer
 62
  256
370
   -1
100
AcDbPolyline
 90
   41
 70
    1
 43
0
 10
419.712
 20
104.4915
 10
419.8305
 20
104.1
 10
420.02325
 20
103.7385
 10
420.28275
 20
103.422
 10
420.59925
 20
103.1625
 10
420.7425
 20
103.086
 10
420.96
 20
102.96975
 10
421.11675
 20
102.9225
 10
421.3515
 20
102.85125
 10
421.75875
 20
102.81075
 10
422.166
 20
102.85125
 10
422.5575
 20
102.96975
 10
422.775
 20
103.086
 10
422.91825
 20
103.1625
 10
423.23475
 20
103.422
 10
423.49425
 20
103.7385
 10
423.6555
 20
104.04075
 10
423.687
 20
104.1
 10
423.8055
 20
104.4915
 10
423.84525
 20
104.89875
 10
423.82575
 20
105.1005
 10
423.8055
 20
105.306
 10
423.69975
 20
105.65475
 10
423.687
 20
105.6975
 10
423.6705
 20
105.729
 10
423.49425
 20
106.059
 10
423.23475
 20
106.3755
 10
422.95125
 20
106.60875
 10
422.91825
 20
106.63575
 10
422.55675
 20
106.8285
 10
422.16525
 20
106.947
 10
421.758
 20
106.9875
 10
421.35075
 20
106.947
 10
420.95925
 20
106.8285
 10
420.59775
 20
106.63575
 10
420.28125
 20
106.37625
 10
420.02175
 20
106.05975
 10
419.829
 20
105.69825
 10
419.7105
 20
105.30675
 10
419.67
 20
104.8995
 10
419.7105
 20
104.49225
  0
LWPOLYLINE
  5
54
100
AcDbEntity
  8
profiling
  6
ByLayer
 62
  256
370
   -1
100
AcDbPolyline
 90
   34
 70
    1
 43
0
 10
505.09725
 20
93.5565
 10
505.05675
 20
93.14924999999999
 10
505.09725
 20
92.742
 10
505.21575
 20
92.3505
 10
505.4085
 20
91.989
 10
505.668
 20
91.6725
 10
505.9845
 20
91.413
 10
506.346
 20
91.22024999999999
 10
506.7375
 20
91.10175
 10
507.14475
 20
91.06125
 10
507.552
 20
91.10175
 10
507.9435
 20
91.22024999999999
 10
508.305
 20
91.413
 10
508.6215
 20
91.6725
 10
508.881
 20
91.989
 10
509.07375
 20
92.3505
 10
509.19225
 20
92.74275
 10
509.23275
 20
93.15000000000001
 10
509.19225
 20
93.55725
 10
509.07375
 20
93.94875
 10
508.881
 20
94.31025
 10
508.87275
 20
94.31999999999999
 10
508.6215
 20
94.62675
 10
508.305
 20
94.88625
 10
507.9435
 20
95.07899999999999
 10
507.552
 20
95.19750000000001
 10
507.14475
 20
95.238
 10
506.7375
 20
95.19750000000001
 10
506.346
 20
95.07899999999999
 10
505.9845
 20
94.88625
 10
505.668
 20
94.62675
 10
505.4085
 20
94.31025
 10
505.21575
 20
93.94875
 10
505.09725
 20
93.55725
  0
LWPOLYLINE
  5
55
100
AcDbEntity
  8
profiling
  6
ByLayer
 62
  256
370
   -1
100
AcDbPolyline
 90
   36
 70
    1
 43
0
 10
534.0817500000001
 20
87.68325
 10
534.23775
 20
87.16875
 10
534.49125
 20
86.69475
 10
534.8325
 20
86.27925
 10
535.248
 20
85.938
 10
535.722
 20
85.6845
 10
536.2365
 20
85.52849999999999
 10
536.77125
 20
85.476
 10
537.306
 20
85.52849999999999
 10
537.8205
 20
85.6845
 10
538.2945
 20
85.938
 10
538.47675
 20
86.08799999999999
 10
538.70925
 20
86.27925
 10
538.878
 20
86.48475000000001
 10
539.0505000000001
 20
86.69475
 10
539.304
 20
87.16875
 10
539.46
 20
87.68325
 10
539.5125
 20
88.218
 10
539.46
 20
88.75275000000001
 10
539.304
 20
89.26725
 10
539.0505000000001
 20
89.74124999999999
 10
538.7505
 20
90.1065
 10
538.70925
 20
90.15675
 10
538.29375
 20
90.498
 10
537.81975
 20
90.75149999999999
 10
537.30525
 20
90.9075
 10
536.7705
 20
90.95999999999999
 10
536.2357500000001
 20
90.9075
 10
535.7212500000001
 20
90.75149999999999
 10
535.24725
 20
90.498
 10
534.8317500000001
 20
90.15675
 10
534.4905
 20
89.74124999999999
 10
534.237
 20
89.26725
 10
534.081
 20
88.75275000000001
 10
534.0285
 20
88.218
 10
534.081
 20
87.68325
  0
LWPOLYLINE
  5
56
100
AcDbEntity
  8
profiling
  6
ByLayer
 62
  256
370
   -1
100
AcDbPolyline
 90
  138
 70
    1
 43
0
 10
543.4109999999999
 20
83.919
 10
542.1247499999999
 20
82.86375
 10
541.0694999999999
 20
81.5775
 10
540.285
 20
80.1105
 10
539.802
 20
78.51824999999999
 10
539.7067500000001
 20
77.54774999999999
 10
539.6392499999999
 20
76.863
 10
539.69925
 20
76.2555
 10
539.8027499999999
 20
75.20699999999999
 10
540.28575
 20
73.61475
 10
541.07025
 20
72.14775
 10
542.1255
 20
70.86150000000001
 10
543.41175
 20
69.80625000000001
 10
544.87875
 20
69.02175
 10
545.70975
 20
68.76975
 10
546.47025
 20
68.53874999999999
 10
547.47525
 20
68.43975
 10
548.1255
 20
68.376
 10
549.78075
 20
68.53874999999999
 10
551.373
 20
69.02175
 10
552.84
 20
69.80625000000001
 10
554.12625
 20
70.86150000000001
 10
554.6535
 20
71.50425
 10
554.6535
 20
71.50425
 10
554.6535
 20
71.50425
 10
555.1245
 20
72.07875
 10
555.1245
 20
72.07875
 10
555.1245
 20
72.07875
 10
555.1245
 20
72.07875
 10
555.1815
 20
72.1485
 10
555.31575
 20
72.399
 10
555.31575
 20
72.399
 10
555.31575
 20
72.399
 10
555.31575
 20
72.399
 10
555.966
 20
73.6155
 10
555.966
 20
73.6155
 10
555.9795
 20
73.66125
 10
555.9795
 20
73.66125
 10
555.9795
 20
73.66125
 10
556.053
 20
73.90349999999999
 10
556.053
 20
73.90349999999999
 10
556.053
 20
73.90349999999999
 10
556.119
 20
74.121
 10
556.119
 20
74.121
 10
556.23375
 20
74.49825
 10
556.23375
 20
74.49825
 10
556.23375
 20
74.49825
 10
556.23375
 20
74.49825
 10
556.311
 20
74.75175
 10
556.3755
 20
74.964
 10
556.3755
 20
74.964
 10
556.3755
 20
74.964
 10
556.44975
 20
75.20775
 10
556.44975
 20
75.2085
 10
556.452
 20
75.23399999999999
 10
556.452
 20
75.23399999999999
 10
556.452
 20
75.23399999999999
 10
556.479
 20
75.51000000000001
 10
556.479
 20
75.51000000000001
 10
556.479
 20
75.51000000000001
 10
556.479
 20
75.51000000000001
 10
556.479
 20
75.51000000000001
 10
556.506
 20
75.78525
 10
556.52025
 20
75.93075
 10
556.52475
 20
75.9795
 10
556.52475
 20
75.9795
 10
556.53525
 20
76.08525
 10
556.53525
 20
76.08525
 10
556.554
 20
76.2765
 10
556.55475
 20
76.28775
 10
556.55475
 20
76.28775
 10
556.55475
 20
76.28775
 10
556.5645
 20
76.386
 10
556.57425
 20
76.48275
 10
556.57425
 20
76.48275
 10
556.5839999999999
 20
76.57875
 10
556.59375
 20
76.67400000000001
 10
556.6035000000001
 20
76.76925
 10
556.6035000000001
 20
76.76925
 10
556.61325
 20
76.86525
 10
556.61175
 20
76.87725
 10
556.6035000000001
 20
76.96125000000001
 10
556.6035000000001
 20
76.96125000000001
 10
556.59375
 20
77.0565
 10
556.5839999999999
 20
77.15175000000001
 10
556.5839999999999
 20
77.15175000000001
 10
556.5839999999999
 20
77.15175000000001
 10
556.575
 20
77.24250000000001
 10
556.57425
 20
77.24775
 10
556.5645
 20
77.3445
 10
556.5645
 20
77.3445
 10
556.55475
 20
77.44199999999999
 10
556.55475
 20
77.44199999999999
 10
556.52925
 20
77.70375
 10
556.5135
 20
77.85975000000001
 10
556.5135
 20
77.85975000000001
 10
556.5119999999999
 20
77.8755
 10
556.4902499999999
 20
78.093
 10
556.4902499999999
 20
78.093
 10
556.4535
 20
78.4695
 10
556.45125
 20
78.495
 10
556.45125
 20
78.495
 10
556.449
 20
78.52124999999999
 10
556.3747499999999
 20
78.765
 10
556.3305
 20
78.90975
 10
556.28325
 20
79.06425
 10
556.2329999999999
 20
79.23075
 10
556.2329999999999
 20
79.23075
 10
556.11825
 20
79.608
 10
555.97875
 20
80.06775
 10
555.97875
 20
80.06775
 10
555.97875
 20
80.06775
 10
555.97875
 20
80.06775
 10
555.96525
 20
80.1135
 10
555.8752500000001
 20
80.28225
 10
555.8752500000001
 20
80.28225
 10
555.8752500000001
 20
80.28225
 10
555.6255
 20
80.7495
 10
555.3150000000001
 20
81.33074999999999
 10
555.3150000000001
 20
81.33074999999999
 10
555.3150000000001
 20
81.33074999999999
 10
555.3150000000001
 20
81.33074999999999
 10
555.29775
 20
81.363
 10
555.1815
 20
81.58125
 10
555.1245
 20
81.651
 10
555.1245
 20
81.651
 10
555.1245
 20
81.651
 10
554.6535
 20
82.2255
 10
554.12625
 20
82.86750000000001
 10
552.84
 20
83.92274999999999
 10
552.606
 20
84.048
 10
551.373
 20
84.70725
 10
549.78075
 20
85.19025000000001
 10
548.1255
 20
85.35299999999999
 10
547.0725
 20
85.2495
 10
546.4695
 20
85.19025000000001
 10
544.87725
 20
84.70725
 10
543.41025
 20
83.92274999999999
  0
LWPOLYLINE
  5
57
100
AcDbEntity
  8
profiling
  6
ByLayer
 62
  256
370
   -1
100
AcDbPolyline
 90
   76
 70
    1
 43
0
 10
556.79175
 20
87.68325
 10
556.8
 20
87.6555
 10
556.8
 20
87.6555
 10
556.94775
 20
87.1695
 10
557.1435
 20
86.8035
 10
557.20125
 20
86.6955
 10
557.5185
 20
86.3085
 10
557.5185
 20
86.3085
 10
557.5185
 20
86.3085
 10
557.54175
 20
86.28
 10
557.913
 20
85.97475
 10
557.913
 20
85.97475
 10
557.913
 20
85.97475
 10
557.95725
 20
85.93875
 10
558.01875
 20
85.90575
 10
558.32925
 20
85.73925
 10
558.4305000000001
 20
85.68525
 10
558.7755
 20
85.58025000000001
 10
558.7755
 20
85.58025000000001
 10
558.7755
 20
85.58025000000001
 10
558.9450000000001
 20
85.52925
 10
559.2675
 20
85.49775
 10
559.2675
 20
85.49775
 10
559.47975
 20
85.47675
 10
559.836
 20
85.512
 10
559.836
 20
85.512
 10
559.836
 20
85.512
 10
560.0145
 20
85.52925
 10
560.33925
 20
85.6275
 10
560.529
 20
85.68525
 10
560.5575
 20
85.70025
 10
560.5575
 20
85.70025
 10
560.5575
 20
85.70025
 10
561.003
 20
85.93875
 10
561.4185
 20
86.28
 10
561.7597500000001
 20
86.6955
 10
562.01325
 20
87.1695
 10
562.16925
 20
87.684
 10
562.21875
 20
88.1865
 10
562.21875
 20
88.1865
 10
562.22175
 20
88.21875
 10
562.16925
 20
88.7535
 10
562.16775
 20
88.75875000000001
 10
562.038
 20
89.1855
 10
562.038
 20
89.1855
 10
562.023
 20
89.23350000000001
 10
562.0125
 20
89.268
 10
561.759
 20
89.742
 10
561.624
 20
89.907
 10
561.624
 20
89.907
 10
561.624
 20
89.907
 10
561.4185
 20
90.1575
 10
561.0735
 20
90.44025000000001
 10
561.003
 20
90.498
 10
560.529
 20
90.75149999999999
 10
560.41875
 20
90.78449999999999
 10
560.0145
 20
90.9075
 10
559.689
 20
90.93975
 10
559.47975
 20
90.96075
 10
558.9450000000001
 20
90.90825
 10
558.915
 20
90.89924999999999
 10
558.90975
 20
90.89775
 10
558.4305000000001
 20
90.75225
 10
558.08475
 20
90.56775
 10
558.08475
 20
90.56775
 10
558.08475
 20
90.56775
 10
557.9565
 20
90.49875
 10
557.62125
 20
90.2235
 10
557.5410000000001
 20
90.1575
 10
557.2184999999999
 20
89.7645
 10
557.2184999999999
 20
89.7645
 10
557.19975
 20
89.742
 10
556.94625
 20
89.268
 10
556.79025
 20
88.7535
 10
556.73775
 20
88.21875
 10
556.79025
 20
87.684
  0
LWPOLYLINE
  5
58
100
AcDbEntity
  8
profiling
  6
ByLayer
 62
  256
370
   -1
100
AcDbPolyline
 90
   44
 70
    1
 43
0
 10
579.63675
 20
101.58975
 10
579.48675
 20
101.3085
 10
579.444
 20
101.22825
 10
579.3255
 20
100.83675
 10
579.285
 20
100.4295
 10
579.3255
 20
100.02225
 10
579.444
 20
99.63075000000001
 10
579.55125
 20
99.42975
 10
579.63675
 20
99.26925
 10
579.89625
 20
98.95274999999999
 10
580.21275
 20
98.69325000000001
 10
580.57425
 20
98.5005
 10
580.89825
 20
98.40225
 10
580.9665
 20
98.38124999999999
 10
581.37375
 20
98.3415
 10
581.595
 20
98.36324999999999
 10
581.78175
 20
98.38200000000001
 10
582.174
 20
98.5005
 10
582.53475
 20
98.69325000000001
 10
582.8512500000001
 20
98.95274999999999
 10
583.1107500000001
 20
99.26925
 10
583.3035
 20
99.63075000000001
 10
583.422
 20
100.02225
 10
583.4625
 20
100.4295
 10
583.45575
 20
100.50075
 10
583.45575
 20
100.50075
 10
583.45575
 20
100.50075
 10
583.42275
 20
100.8375
 10
583.30425
 20
101.229
 10
583.1115
 20
101.5905
 10
582.852
 20
101.907
 10
582.5549999999999
 20
102.15075
 10
582.5549999999999
 20
102.15075
 10
582.5355
 20
102.1665
 10
582.306
 20
102.2895
 10
582.17475
 20
102.36
 10
581.7825
 20
102.4785
 10
581.3752500000001
 20
102.519
 10
580.968
 20
102.4785
 10
580.8045
 20
102.429
 10
580.57575
 20
102.36
 10
580.21425
 20
102.16725
 10
579.89775
 20
101.90775
 10
579.63825
 20
101.59125
  0
LWPOLYLINE
  5
59
100
AcDbEntity
  8
profiling
  6
ByLayer
 62
  256
370
   -1
100
AcDbPolyline
 90
   39
 70
    1
 43
0
 10
515.751
 20
40.332
 10
516.1005
 20
40.3665
 10
516.15825
 20
40.3725
 10
516.168
 20
40.3755
 10
516.54975
 20
40.491
 10
516.9105
 20
40.68375
 10
517.227
 20
40.94325
 10
517.4865
 20
41.25975
 10
517.67925
 20
41.62125
 10
517.79775
 20
42.01275
 10
517.8127500000001
 20
42.168
 10
517.8375
 20
42.42
 10
517.803
 20
42.7695
 10
517.797
 20
42.82725
 10
517.6785
 20
43.2195
 10
517.4857500000001
 20
43.58025
 10
517.2262500000001
 20
43.89675
 10
516.90975
 20
44.15625
 10
516.5482500000001
 20
44.349
 10
516.1559999999999
 20
44.4675
 10
515.74875
 20
44.508
 10
515.3415
 20
44.4675
 10
514.95
 20
44.349
 10
514.5885
 20
44.15625
 10
514.272
 20
43.89675
 10
514.0125
 20
43.58025
 10
513.81975
 20
43.21875
 10
513.70125
 20
42.8265
 10
513.66075
 20
42.41925
 10
513.70125
 20
42.012
 10
513.81975
 20
41.6205
 10
514.0125
 20
41.259
 10
514.272
 20
40.9425
 10
514.5885
 20
40.683
 10
514.95
 20
40.49025
 10
515.322
 20
40.377
 10
515.3415
 20
40.371
 10
515.3835
 20
40.3665
 10
515.74875
 20
40.3305
  0
LWPOLYLINE
  5
5A
100
AcDbEntity
  8
profiling
  6
ByLayer
 62
  256
370
   -1
100
AcDbPolyline
 90
   51
 70
    1
 43
0
 10
494.47575
 20
60.05925
 10
495.54075
 20
60.16425
 10
496.5645
 20
60.47475
 10
497.508
 20
60.97875
 10
498.33525
 20
61.6575
 10
499.014
 20
62.48475
 10
499.518
 20
63.42825
 10
499.8285
 20
64.452
 10
499.9335
 20
65.517
 10
499.9335
 20
69.26925
 10
499.9335
 20
76.86225
 10
499.9335
 20
84.45525000000001
 10
499.9335
 20
85.02225
 10
499.92375
 20
85.122
 10
499.8285
 20
86.08725
 10
499.7925
 20
86.20574999999999
 10
499.518
 20
87.111
 10
499.029
 20
88.026
 10
499.014
 20
88.0545
 10
498.33525
 20
88.88175
 10
497.508
 20
89.5605
 10
496.5645
 20
90.06525000000001
 10
495.54075
 20
90.37575
 10
494.47575
 20
90.48075
 10
493.41075
 20
90.37575
 10
493.056
 20
90.2685
 10
492.387
 20
90.06525000000001
 10
491.4435
 20
89.5605
 10
491.049
 20
89.23650000000001
 10
490.61625
 20
88.88175
 10
490.2615
 20
88.449
 10
489.9375
 20
88.0545
 10
489.4335
 20
87.111
 10
489.4185
 20
87.06075
 10
489.123
 20
86.08725
 10
489.03825
 20
85.224
 10
489.01875
 20
85.02225
 10
489.01875
 20
83.25075
 10
489.01875
 20
76.86150000000001
 10
489.01875
 20
70.47225
 10
489.01875
 20
65.5155
 10
489.12375
 20
64.45050000000001
 10
489.43425
 20
63.42675
 10
489.93825
 20
62.48325
 10
490.617
 20
61.656
 10
491.44425
 20
60.97725
 10
491.47275
 20
60.96225
 10
492.3885
 20
60.47325
 10
493.29375
 20
60.19875
 10
493.41225
 20
60.16275
 10
494.47725
 20
60.05775
  0
LWPOLYLINE
  5
5B
100
AcDbEntity
  8
profiling
  6
ByLayer
 62
  256
370
   -1
100
AcDbPolyline
 90
   36
 70
    1
 43
0
 10
505.21575
 20
59.7885
 10
505.4085
 20
59.427
 10
505.668
 20
59.1105
 10
505.75275
 20
59.0415
 10
505.9845
 20
58.851
 10
506.346
 20
58.65825
 10
506.47575
 20
58.61925
 10
506.7375
 20
58.53975
 10
507.14475
 20
58.49925
 10
507.552
 20
58.53975
 10
507.9435
 20
58.65825
 10
508.305
 20
58.851
 10
508.6215
 20
59.1105
 10
508.881
 20
59.427
 10
509.07375
 20
59.7885
 10
509.19225
 20
60.18
 10
509.23275
 20
60.58725
 10
509.19225
 20
60.9945
 10
509.07375
 20
61.386
 10
508.881
 20
61.74675
 10
508.6215
 20
62.06325
 10
508.305
 20
62.32275
 10
507.9435
 20
62.5155
 10
507.552
 20
62.634
 10
507.14475
 20
62.6745
 10
507.06525
 20
62.667
 10
506.7375
 20
62.63475
 10
506.346
 20
62.51625
 10
505.9845
 20
62.3235
 10
505.668
 20
62.064
 10
505.4085
 20
61.7475
 10
505.21575
 20
61.38675
 10
505.09725
 20
60.99525
 10
505.05675
 20
60.588
 10
505.09725
 20
60.18075
 10
505.21575
 20
59.78925
  0
LWPOLYLINE
  5
5C
100
AcDbEntity
  8
profiling
  6
ByLayer
 62
  256
370
   -1
100
AcDbPolyline
 90
   42
 70
    1
 43
0
 10
579.28425
 20
53.2965
 10
579.32475
 20
52.88925
 10
579.44325
 20
52.49775
 10
579.636
 20
52.13625
 10
579.8955
 20
51.81975
 10
580.212
 20
51.56025
 10
580.5735
 20
51.3675
 10
580.965
 20
51.249
 10
581.37225
 20
51.2085
 10
581.7795
 20
51.249
 10
582.17175
 20
51.3675
 10
582.5325
 20
51.56025
 10
582.552
 20
51.576
 10
582.552
 20
51.576
 10
582.849
 20
51.81975
 10
583.1085
 20
52.13625
 10
583.30125
 20
52.49775
 10
583.41975
 20
52.88925
 10
583.45275
 20
53.226
 10
583.45275
 20
53.226
 10
583.45275
 20
53.226
 10
583.4595
 20
53.29725
 10
583.419
 20
53.7045
 10
583.3005000000001
 20
54.096
 10
583.191
 20
54.3015
 10
583.10775
 20
54.4575
 10
582.84825
 20
54.774
 10
582.53175
 20
55.0335
 10
582.17025
 20
55.22625
 10
581.778
 20
55.34475
 10
581.37075
 20
55.38525
 10
581.22075
 20
55.37025
 10
580.9635
 20
55.34475
 10
580.89525
 20
55.32375
 10
580.57125
 20
55.2255
 10
580.4295
 20
55.14975
 10
580.20975
 20
55.032
 10
579.89325
 20
54.7725
 10
579.63375
 20
54.456
 10
579.441
 20
54.0945
 10
579.3225
 20
53.703
 10
579.282
 20
53.29575
  0
LWPOLYLINE
  5
5D
100
AcDbEntity
  8
profiling
  6
ByLayer
 62
  256
370
   -1
100
AcDbPolyline
 90
   70
 70
    1
 43
0
 10
558.0855
 20
63.15975
 10
558.43125
 20
62.97525
 10
558.9105
 20
62.82975
 10
558.9105
 20
62.82975
 10
558.9105
 20
62.82975
 10
558.94575
 20
62.81925
 10
559.4805
 20
62.76675
 10
559.68975
 20
62.787
 10
559.68975
 20
62.787
 10
559.68975
 20
62.787
 10
560.01525
 20
62.81925
 10
560.4195
 20
62.94225
 10
560.52975
 20
62.97525
 10
561.00375
 20
63.22875
 10
561.07425
 20
63.2865
 10
561.41925
 20
63.56925
 10
561.6247499999999
 20
63.81975
 10
561.6247499999999
 20
63.81975
 10
561.756
 20
63.98025
 10
561.7597500000001
 20
63.98475
 10
562.01325
 20
64.45874999999999
 10
562.16925
 20
64.97324999999999
 10
562.22175
 20
65.508
 10
562.21875
 20
65.54025
 10
562.21875
 20
65.54025
 10
562.21875
 20
65.54025
 10
562.16925
 20
66.04275
 10
562.01325
 20
66.55725
 10
561.7597500000001
 20
67.03125
 10
561.4185
 20
67.44674999999999
 10
561.28575
 20
67.55549999999999
 10
561.003
 20
67.788
 10
560.5575
 20
68.0265
 10
560.5575
 20
68.0265
 10
560.5575
 20
68.0265
 10
560.529
 20
68.0415
 10
560.0145
 20
68.19750000000001
 10
559.47975
 20
68.25
 10
558.9450000000001
 20
68.19750000000001
 10
558.7755
 20
68.1465
 10
558.7755
 20
68.1465
 10
558.4305000000001
 20
68.04225
 10
558.36675
 20
68.00775
 10
558.32925
 20
67.9875
 10
558.10875
 20
67.86975
 10
557.95725
 20
67.78874999999999
 10
557.913
 20
67.75275000000001
 10
557.913
 20
67.75275000000001
 10
557.913
 20
67.75275000000001
 10
557.54175
 20
67.44750000000001
 10
557.5185
 20
67.419
 10
557.5185
 20
67.419
 10
557.5185
 20
67.419
 10
557.20125
 20
67.032
 10
557.1435
 20
66.92400000000001
 10
557.1435
 20
66.92400000000001
 10
557.1435
 20
66.92400000000001
 10
556.94775
 20
66.55800000000001
 10
556.8
 20
66.072
 10
556.8
 20
66.072
 10
556.8
 20
66.072
 10
556.79175
 20
66.04425000000001
 10
556.73925
 20
65.5095
 10
556.79175
 20
64.97475
 10
556.94775
 20
64.46025
 10
557.20125
 20
63.98625
 10
557.5425
 20
63.57075
 10
557.76525
 20
63.3885
 10
557.958
 20
63.23025
 10
558.0862499999999
 20
63.16125
  0
LWPOLYLINE
  5
5E
100
AcDbEntity
  8
profiling
  6
ByLayer
 62
  256
370
   -1
100
AcDbPolyline
 90
   36
 70
    1
 43
0
 10
534.8317500000001
 20
63.56925
 10
535.24725
 20
63.228
 10
535.7212500000001
 20
62.9745
 10
536.2357500000001
 20
62.8185
 10
536.7705
 20
62.766
 10
537.30525
 20
62.8185
 10
537.81975
 20
62.9745
 10
538.29375
 20
63.228
 10
538.70925
 20
63.56925
 10
539.0505000000001
 20
63.98475
 10
539.304
 20
64.45874999999999
 10
539.46
 20
64.97324999999999
 10
539.47425
 20
65.11799999999999
 10
539.5125
 20
65.508
 10
539.46
 20
66.04275
 10
539.4059999999999
 20
66.2205
 10
539.304
 20
66.5565
 10
539.0505000000001
 20
67.0305
 10
538.70925
 20
67.446
 10
538.29375
 20
67.78725
 10
537.81975
 20
68.04075
 10
537.30525
 20
68.19674999999999
 10
536.7705
 20
68.24925
 10
536.2357500000001
 20
68.19674999999999
 10
535.7212500000001
 20
68.04075
 10
535.24725
 20
67.78725
 10
534.8317500000001
 20
67.446
 10
534.4905
 20
67.0305
 10
534.237
 20
66.5565
 10
534.081
 20
66.042
 10
534.0285
 20
65.50725
 10
534.081
 20
64.9725
 10
534.198
 20
64.587
 10
534.237
 20
64.458
 10
534.4905
 20
63.984
 10
534.8317500000001
 20
63.5685
  0
LWPOLYLINE
  5
5F
100
AcDbEntity
  8
profiling
  6
ByLayer
 62
  256
370
   -1
100
AcDbPolyline
 90
   35
 70
    1
 43
0
 10
422.181
 20
46.767
 10
422.5725
 20
46.8855
 10
422.934
 20
47.07825
 10
423.2505
 20
47.33775
 10
423.51
 20
47.65425
 10
423.612
 20
47.84475
 10
423.70275
 20
48.015
 10
423.8145
 20
48.38475
 10
423.82125
 20
48.40725
 10
423.86175
 20
48.8145
 10
423.82125
 20
49.22175
 10
423.70275
 20
49.61325
 10
423.51
 20
49.97475
 10
423.2505
 20
50.29125
 10
422.934
 20
50.55075
 10
422.5725
 20
50.7435
 10
422.181
 20
50.862
 10
421.77375
 20
50.90175
 10
421.3665
 20
50.862
 10
420.97425
 20
50.7435
 10
420.61275
 20
50.55075
 10
420.29625
 20
50.29125
 10
420.03675
 20
49.97475
 10
419.844
 20
49.61325
 10
419.7255
 20
49.22175
 10
419.685
 20
48.8145
 10
419.7255
 20
48.40725
 10
419.844
 20
48.01575
 10
420.03675
 20
47.65425
 10
420.29625
 20
47.33775
 10
420.61275
 20
47.07825
 10
420.97425
 20
46.8855
 10
421.3665
 20
46.767
 10
421.77375
 20
46.7265
 10
422.181
 20
46.767
  0
LWPOLYLINE
  5
60
100
AcDbEntity
  8
profiling
  6
ByLayer
 62
  256
370
   -1
100
AcDbPolyline
 90
   36
 70
    1
 43
0
 10
514.9515
 20
113.235
 10
514.59
 20
113.04225
 10
514.2735
 20
112.78275
 10
514.014
 20
112.46625
 10
513.82125
 20
112.10475
 10
513.70275
 20
111.71325
 10
513.66225
 20
111.306
 10
513.70275
 20
110.89875
 10
513.8077500000001
 20
110.55225
 10
513.82125
 20
110.5065
 10
514.014
 20
110.145
 10
514.2735
 20
109.8285
 10
514.59
 20
109.569
 10
514.9515
 20
109.37625
 10
515.343
 20
109.25775
 10
515.7502500000001
 20
109.21725
 10
516.1575
 20
109.25775
 10
516.549
 20
109.37625
 10
516.9105
 20
109.569
 10
517.227
 20
109.8285
 10
517.4865
 20
110.145
 10
517.5405
 20
110.24625
 10
517.6125
 20
110.3805
 10
517.6799999999999
 20
110.5065
 10
517.7985
 20
110.898
 10
517.8390000000001
 20
111.30525
 10
517.7985
 20
111.7125
 10
517.6799999999999
 20
112.104
 10
517.48725
 20
112.4655
 10
517.22775
 20
112.782
 10
516.91125
 20
113.0415
 10
516.54975
 20
113.23425
 10
516.15825
 20
113.35275
 10
515.751
 20
113.39325
 10
515.34375
 20
113.35275
 10
514.95225
 20
113.23425
  0
ENDSEC
  0
SECTION
  2
OBJECTS
  0
DICTIONARY
  5
C
330
0
100
AcDbDictionary
281
    1
  3
ACAD_GROUP
350
D
  0
DICTIONARY
  5
D
330
C
100
AcDbDictionary
281
    1
  0
ENDSEC
  0
EOF
