999
dxfrw 0.6.3
  0
SECTION
  2
HEADER
  9
$ACADVER
  1
AC1021
  9
$DWGCODEPAGE
  3
ANSI_1252
  9
$INSBASE
 10
0
 20
0
 30
0
  9
$EXTMIN
 10
413.94225
 20
232.48125
 30
0
  9
$EXTMAX
 10
626.28
 20
315.98925
 30
0
  9
$LIMMIN
 10
0
 20
0
  9
$LIMMAX
 10
420
 20
297
  9
$ORTHOMODE
 70
    0
  9
$REGENMODE
 70
    1
  9
$FILLMODE
 70
    1
  9
$QTEXTMODE
 70
    0
  9
$MIRRTEXT
 70
    0
  9
$LTSCALE
 40
1
  9
$ATTMODE
 70
    0
  9
$TEXTSIZE
 40
2.5
  9
$TRACEWID
 40
15.68
  9
$TEXTSTYLE
  7
STANDARD
  9
$CLAYER
  8
pocket-0.5mm
  9
$CELTYPE
  6
BYLAYER
  9
$CECOLOR
 62
  256
  9
$CELTSCALE
 40
1
  9
$DISPSILH
 70
    0
  9
$DIMSCALE
 40
2.5
  9
$DIMASZ
 40
2.5
  9
$DIMEXO
 40
0.625
  9
$DIMDLI
 40
3.75
  9
$DIMRND
 40
0
  9
$DIMDLE
 40
0
  9
$DIMEXE
 40
1.25
  9
$DIMTP
 40
0
  9
$DIMTM
 40
0
  9
$DIMTXT
 40
2.5
  9
$DIMCEN
 40
2.5
  9
$DIMTSZ
 40
0
  9
$DIMTOL
 70
    0
  9
$DIMLIM
 70
    0
  9
$DIMTIH
 70
    0
  9
$DIMTOH
 70
    0
  9
$DIMSE1
 70
    0
  9
$DIMSE2
 70
    0
  9
$DIMTAD
 70
    1
  9
$DIMZIN
 70
    8
  9
$DIMBLK
  1

  9
$DIMASO
 70
    1
  9
$DIMSHO
 70
    1
  9
$DIMPOST
  1

  9
$DIMAPOST
  1

  9
$DIMALT
 70
    0
  9
$DIMALTD
 70
    3
  9
$DIMALTF
 40
0.03937
  9
$DIMLFAC
 40
1
  9
$DIMTOFL
 70
    1
  9
$DIMTVP
 40
0
  9
$DIMTIX
 70
    0
  9
$DIMSOXD
 70
    0
  9
$DIMSAH
 70
    0
  9
$DIMBLK1
  1

  9
$DIMBLK2
  1

  9
$DIMSTYLE
  2
Standard
  9
$DIMCLRD
 70
    0
  9
$DIMCLRE
 70
    0
  9
$DIMCLRT
 70
    0
  9
$DIMTFAC
 40
1
  9
$DIMGAP
 40
0.625
  9
$DIMJUST
 70
    0
  9
$DIMSD1
 70
    0
  9
$DIMSD2
 70
    0
  9
$DIMTOLJ
 70
    0
  9
$DIMTZIN
 70
    8
  9
$DIMALTZ
 70
    0
  9
$DIMALTTZ
 70
    0
  9
$DIMUPT
 70
    0
  9
$DIMDEC
 70
    2
  9
$DIMTDEC
 70
    2
  9
$DIMALTU
 70
    2
  9
$DIMALTTD
 70
    3
  9
$DIMTXSTY
  7
STANDARD
  9
$DIMAUNIT
 70
    0
  9
$DIMADEC
 70
    0
  9
$DIMALTRND
 40
0
  9
$DIMAZIN
 70
    0
  9
$DIMDSEP
 70
   44
  9
$DIMATFIT
 70
    3
  9
$DIMFRAC
 70
    0
  9
$DIMLDRBLK
  1
STANDARD
  9
$DIMLUNIT
 70
    2
  9
$DIMLWD
 70
   -2
  9
$DIMLWE
 70
   -2
  9
$DIMTMOVE
 70
    0
  9
$DIMFXL
 40
1
  9
$DIMFXLON
 70
    0
  9
$DIMJOGANG
 40
0.7854
  9
$DIMTFILL
 70
    0
  9
$DIMTFILLCLR
 70
    0
  9
$DIMARCSYM
 70
    0
  9
$DIMLTYPE
  6

  9
$DIMLTEX1
  6

  9
$DIMLTEX2
  6

  9
$LUNITS
 70
    2
  9
$LUPREC
 70
    4
  9
$SKETCHINC
 40
1
  9
$FILLETRAD
 40
0
  9
$AUNITS
 70
    0
  9
$AUPREC
 70
    2
  9
$MENU
  1
.
  9
$ELEVATION
 40
0
  9
$PELEVATION
 40
0
  9
$THICKNESS
 40
0
  9
$LIMCHECK
 70
    0
  9
$CHAMFERA
 40
0
  9
$CHAMFERB
 40
0
  9
$CHAMFERC
 40
0
  9
$CHAMFERD
 40
0
  9
$SKPOLY
 70
    0
  9
$USRTIMER
 70
    1
  9
$ANGBASE
 50
0
  9
$ANGDIR
 70
    0
  9
$PDMODE
 70
   34
  9
$PDSIZE
 40
0
  9
$PLINEWID
 40
0
  9
$SPLFRAME
 70
    0
  9
$SPLINETYPE
 70
    2
  9
$SPLINESEGS
 70
    8
  9
$HANDSEED
  5
20000
  9
$SURFTAB1
 70
    6
  9
$SURFTAB2
 70
    6
  9
$SURFTYPE
 70
    6
  9
$SURFU
 70
    6
  9
$SURFV
 70
    6
  9
$UCSBASE
  2

  9
$UCSNAME
  2

  9
$UCSORG
 10
0
 20
0
 30
0
  9
$UCSXDIR
 10
1
 20
0
 30
0
  9
$UCSYDIR
 10
0
 20
1
 30
0
  9
$UCSORTHOREF
  2

  9
$UCSORTHOVIEW
 70
    0
  9
$UCSORGTOP
 10
0
 20
0
 30
0
  9
$UCSORGBOTTOM
 10
0
 20
0
 30
0
  9
$UCSORGLEFT
 10
0
 20
0
 30
0
  9
$UCSORGRIGHT
 10
0
 20
0
 30
0
  9
$UCSORGFRONT
 10
0
 20
0
 30
0
  9
$UCSORGBACK
 10
0
 20
0
 30
0
  9
$PUCSBASE
  2

  9
$PUCSNAME
  2

  9
$PUCSORG
 10
0
 20
0
 30
0
  9
$PUCSXDIR
 10
1
 20
0
 30
0
  9
$PUCSYDIR
 10
0
 20
1
 30
0
  9
$PUCSORTHOREF
  2

  9
$PUCSORTHOVIEW
 70
    0
  9
$PUCSORGTOP
 10
0
 20
0
 30
0
  9
$PUCSORGBOTTOM
 10
0
 20
0
 30
0
  9
$PUCSORGLEFT
 10
0
 20
0
 30
0
  9
$PUCSORGRIGHT
 10
0
 20
0
 30
0
  9
$PUCSORGFRONT
 10
0
 20
0
 30
0
  9
$PUCSORGBACK
 10
0
 20
0
 30
0
  9
$USERI1
 70
    0
  9
$USERI2
 70
    0
  9
$USERI3
 70
    0
  9
$USERI4
 70
    0
  9
$USERI5
 70
    0
  9
$USERR1
 40
0
  9
$USERR2
 40
0
  9
$USERR3
 40
0
  9
$USERR4
 40
0
  9
$USERR5
 40
0
  9
$WORLDVIEW
 70
    1
  9
$SHADEDGE
 70
    3
  9
$SHADEDIF
 70
   70
  9
$TILEMODE
 70
    1
  9
$MAXACTVP
 70
   64
  9
$PINSBASE
 10
0
 20
0
 30
0
  9
$PLIMCHECK
 70
    0
  9
$PEXTMIN
 10
0
 20
0
 30
0
  9
$PEXTMAX
 10
0
 20
0
 30
0
  9
$GRIDMODE
 70
    0
  9
$SNAPSTYLE
 70
    0
  9
$PLIMMIN
 10
0
 20
0
  9
$PLIMMAX
 10
210
 20
297
  9
$UNITMODE
 70
    0
  9
$VISRETAIN
 70
    1
  9
$PLINEGEN
 70
    0
  9
$PSLTSCALE
 70
    1
  9
$TREEDEPTH
 70
 3020
  9
$CMLSTYLE
  2
Standard
  9
$CMLJUST
 70
    0
  9
$CMLSCALE
 40
20
  9
$PROXYGRAPHICS
 70
    1
  9
$MEASUREMENT
 70
    1
  9
$CELWEIGHT
370
   -1
  9
$ENDCAPS
280
    0
  9
$JOINSTYLE
280
    0
  9
$LWDISPLAY
290
    0
  9
$INSUNITS
 70
    4
  9
$HYPERLINKBASE
  1

  9
$STYLESHEET
  1

  9
$XEDIT
290
    1
  9
$CEPSNTYPE
380
    0
  9
$PSTYLEMODE
290
    1
  9
$EXTNAMES
290
    1
  9
$PSVPSCALE
 40
1
  9
$OLESTARTUP
290
    0
  9
$SORTENTS
280
  127
  9
$INDEXCTL
280
    0
  9
$HIDETEXT
280
    1
  9
$XCLIPFRAME
290
    0
  9
$HALOGAP
280
    0
  9
$OBSCOLOR
 70
  257
  9
$OBSLTYPE
280
    0
  9
$INTERSECTIONDISPLAY
280
    0
  9
$INTERSECTIONCOLOR
 70
  257
  9
$DIMASSOC
280
    1
  9
$PROJECTNAME
  1

  9
$CAMERADISPLAY
290
    0
  9
$LENSLENGTH
 40
50
  9
$CAMERAHEIGHT
 40
0
  9
$STEPSPERSEC
 40
2
  9
$STEPSIZE
 40
50
  9
$3DDWFPREC
 40
2
  9
$PSOLWIDTH
 40
5
  9
$PSOLHEIGHT
 40
80
  9
$LOFTANG1
 40
1.570796326794897
  9
$LOFTANG2
 40
1.570796326794897
  9
$LOFTMAG1
 40
0
  9
$LOFTMAG2
 40
0
  9
$LOFTPARAM
 70
    7
  9
$LOFTNORMALS
280
    1
  9
$LATITUDE
 40
1
  9
$LONGITUDE
 40
1
  9
$NORTHDIRECTION
 40
0
  9
$TIMEZONE
 70
-8000
  9
$LIGHTGLYPHDISPLAY
280
    1
  9
$TILEMODELIGHTSYNCH
280
    1
  9
$SOLIDHIST
280
    1
  9
$SHOWHIST
280
    1
  9
$DWFFRAME
280
    2
  9
$DGNFRAME
280
    0
  9
$REALWORLDSCALE
290
    1
  9
$INTERFERECOLOR
 62
    1
  9
$CSHADOW
280
    0
  9
$SHADOWPLANELOCATION
 40
0
  0
ENDSEC
  0
SECTION
  2
CLASSES
  0
ENDSEC
  0
SECTION
  2
TABLES
  0
TABLE
  2
VPORT
  5
8
330
0
100
AcDbSymbolTable
 70
    1
  0
VPORT
  5
31
330
2
100
AcDbSymbolTableRecord
100
AcDbViewportTableRecord
  2
*ACTIVE
 70
    0
 10
0
 20
0
 11
1
 21
1
 12
338.427949026694
 22
164.1628110950381
 13
0
 23
0
 14
10
 24
10
 15
10
 25
10
 16
0
 26
0
 36
1
 17
0
 27
0
 37
0
 40
321.3317036108793
 41
0.9866989117291415
 42
50
 43
0
 44
0
 50
0
 51
0
 71
    0
 72
  100
 73
    1
 74
    3
 75
    0
 76
    0
 77
    0
 78
    0
281
    0
 65
    1
110
0
120
0
130
0
111
1
121
0
131
0
112
0
122
1
132
0
 79
    0
146
0
348
10020
 60
    7
 61
    5
292
1
282
    1
141
0
142
0
 63
  250
421
3358443
  0
ENDTAB
  0
TABLE
  2
LTYPE
  5
5
330
0
100
AcDbSymbolTable
 70
    4
  0
LTYPE
  5
14
330
5
100
AcDbSymbolTableRecord
100
AcDbLinetypeTableRecord
  2
ByBlock
 70
    0
  3

 72
   65
 73
    0
 40
0
  0
LTYPE
  5
15
330
5
100
AcDbSymbolTableRecord
100
AcDbLinetypeTableRecord
  2
ByLayer
 70
    0
  3

 72
   65
 73
    0
 40
0
  0
LTYPE
  5
16
330
5
100
AcDbSymbolTableRecord
100
AcDbLinetypeTableRecord
  2
Continuous
 70
    0
  3
Solid line
 72
   65
 73
    0
 40
0
  0
LTYPE
  5
32
330
5
100
AcDbSymbolTableRecord
100
AcDbLinetypeTableRecord
  2
DOT
 70
    0
  3
Dot . . . . . . . . . . . . . . . . . . . . . .
 72
   65
 73
    2
 40
6.35
 49
0
 74
    0
 49
-6.35
 74
    0
  0
LTYPE
  5
33
330
5
100
AcDbSymbolTableRecord
100
AcDbLinetypeTableRecord
  2
DOTTINY
 70
    0
  3
Dot (.15x) .....................................
 72
   65
 73
    2
 40
0.9525
 49
0
 74
    0
 49
-0.9525
 74
    0
  0
LTYPE
  5
34
330
5
100
AcDbSymbolTableRecord
100
AcDbLinetypeTableRecord
  2
DOT2
 70
    0
  3
Dot (.5x) .....................................
 72
   65
 73
    2
 40
3.175
 49
0
 74
    0
 49
-3.175
 74
    0
  0
LTYPE
  5
35
330
5
100
AcDbSymbolTableRecord
100
AcDbLinetypeTableRecord
  2
DOTX2
 70
    0
  3
Dot (2x) .  .  .  .  .  .  .  .  .  .  .  .  .
 72
   65
 73
    2
 40
12.7
 49
0
 74
    0
 49
-12.7
 74
    0
  0
LTYPE
  5
36
330
5
100
AcDbSymbolTableRecord
100
AcDbLinetypeTableRecord
  2
DASHED
 70
    0
  3
Dashed _ _ _ _ _ _ _ _ _ _ _ _ _ _ _ _ _
 72
   65
 73
    2
 40
19.05
 49
12.7
 74
    0
 49
-6.35
 74
    0
  0
LTYPE
  5
37
330
5
100
AcDbSymbolTableRecord
100
AcDbLinetypeTableRecord
  2
DASHEDTINY
 70
    0
  3
Dashed (.15x) _ _ _ _ _ _ _ _ _ _ _ _ _ _ _ _ _
 72
   65
 73
    2
 40
2.8575
 49
1.905
 74
    0
 49
-0.9525
 74
    0
  0
LTYPE
  5
38
330
5
100
AcDbSymbolTableRecord
100
AcDbLinetypeTableRecord
  2
DASHED2
 70
    0
  3
Dashed (.5x) _ _ _ _ _ _ _ _ _ _ _ _ _ _ _ _ _
 72
   65
 73
    2
 40
9.524999999999999
 49
6.35
 74
    0
 49
-3.175
 74
    0
  0
LTYPE
  5
39
330
5
100
AcDbSymbolTableRecord
100
AcDbLinetypeTableRecord
  2
DASHEDX2
 70
    0
  3
Dashed (2x) ____  ____  ____  ____  ____  ___
 72
   65
 73
    2
 40
38.09999999999999
 49
25.4
 74
    0
 49
-12.7
 74
    0
  0
LTYPE
  5
3A
330
5
100
AcDbSymbolTableRecord
100
AcDbLinetypeTableRecord
  2
DASHDOT
 70
    0
  3
Dash dot __ . __ . __ . __ . __ . __ . __ . __
 72
   65
 73
    4
 40
25.4
 49
12.7
 74
    0
 49
-6.35
 74
    0
 49
0
 74
    0
 49
-6.35
 74
    0
  0
LTYPE
  5
3B
330
5
100
AcDbSymbolTableRecord
100
AcDbLinetypeTableRecord
  2
DASHDOTTINY
 70
    0
  3
Dash dot (.15x) _._._._._._._._._._._._._._._.
 72
   65
 73
    4
 40
3.81
 49
1.905
 74
    0
 49
-0.9525
 74
    0
 49
0
 74
    0
 49
-0.9525
 74
    0
  0
LTYPE
  5
3C
330
5
100
AcDbSymbolTableRecord
100
AcDbLinetypeTableRecord
  2
DASHDOT2
 70
    0
  3
Dash dot (.5x) _._._._._._._._._._._._._._._.
 72
   65
 73
    4
 40
12.7
 49
6.35
 74
    0
 49
-3.175
 74
    0
 49
0
 74
    0
 49
-3.175
 74
    0
  0
LTYPE
  5
3D
330
5
100
AcDbSymbolTableRecord
100
AcDbLinetypeTableRecord
  2
DASHDOTX2
 70
    0
  3
Dash dot (2x) ____  .  ____  .  ____  .  ___
 72
   65
 73
    4
 40
50.8
 49
25.4
 74
    0
 49
-12.7
 74
    0
 49
0
 74
    0
 49
-12.7
 74
    0
  0
LTYPE
  5
3E
330
5
100
AcDbSymbolTableRecord
100
AcDbLinetypeTableRecord
  2
DIVIDE
 70
    0
  3
Divide ____ . . ____ . . ____ . . ____ . . ____
 72
   65
 73
    6
 40
31.75
 49
12.7
 74
    0
 49
-6.35
 74
    0
 49
0
 74
    0
 49
-6.35
 74
    0
 49
0
 74
    0
 49
-6.35
 74
    0
  0
LTYPE
  5
3F
330
5
100
AcDbSymbolTableRecord
100
AcDbLinetypeTableRecord
  2
DIVIDETINY
 70
    0
  3
Divide (.15x) __..__..__..__..__..__..__..__.._
 72
   65
 73
    6
 40
4.7625
 49
1.905
 74
    0
 49
-0.9525
 74
    0
 49
0
 74
    0
 49
-0.9525
 74
    0
 49
0
 74
    0
 49
-0.9525
 74
    0
  0
LTYPE
  5
40
330
5
100
AcDbSymbolTableRecord
100
AcDbLinetypeTableRecord
  2
DIVIDE2
 70
    0
  3
Divide (.5x) __..__..__..__..__..__..__..__.._
 72
   65
 73
    6
 40
15.875
 49
6.35
 74
    0
 49
-3.175
 74
    0
 49
0
 74
    0
 49
-3.175
 74
    0
 49
0
 74
    0
 49
-3.175
 74
    0
  0
LTYPE
  5
41
330
5
100
AcDbSymbolTableRecord
100
AcDbLinetypeTableRecord
  2
DIVIDEX2
 70
    0
  3
Divide (2x) ________  .  .  ________  .  .  _
 72
   65
 73
    6
 40
63.5
 49
25.4
 74
    0
 49
-12.7
 74
    0
 49
0
 74
    0
 49
-12.7
 74
    0
 49
0
 74
    0
 49
-12.7
 74
    0
  0
LTYPE
  5
42
330
5
100
AcDbSymbolTableRecord
100
AcDbLinetypeTableRecord
  2
BORDER
 70
    0
  3
Border __ __ . __ __ . __ __ . __ __ . __ __ .
 72
   65
 73
    6
 40
44.45
 49
12.7
 74
    0
 49
-6.35
 74
    0
 49
12.7
 74
    0
 49
-6.35
 74
    0
 49
0
 74
    0
 49
-6.35
 74
    0
  0
LTYPE
  5
43
330
5
100
AcDbSymbolTableRecord
100
AcDbLinetypeTableRecord
  2
BORDERTINY
 70
    0
  3
Border (.15x) __.__.__.__.__.__.__.__.__.__.__.
 72
   65
 73
    6
 40
6.6675
 49
1.905
 74
    0
 49
-0.9525
 74
    0
 49
1.905
 74
    0
 49
-0.9525
 74
    0
 49
0
 74
    0
 49
-0.9525
 74
    0
  0
LTYPE
  5
44
330
5
100
AcDbSymbolTableRecord
100
AcDbLinetypeTableRecord
  2
BORDER2
 70
    0
  3
Border (.5x) __.__.__.__.__.__.__.__.__.__.__.
 72
   65
 73
    6
 40
22.225
 49
6.35
 74
    0
 49
-3.175
 74
    0
 49
6.35
 74
    0
 49
-3.175
 74
    0
 49
0
 74
    0
 49
-3.175
 74
    0
  0
LTYPE
  5
45
330
5
100
AcDbSymbolTableRecord
100
AcDbLinetypeTableRecord
  2
BORDERX2
 70
    0
  3
Border (2x) ____  ____  .  ____  ____  .  ___
 72
   65
 73
    6
 40
88.89999999999999
 49
25.4
 74
    0
 49
-12.7
 74
    0
 49
25.4
 74
    0
 49
-12.7
 74
    0
 49
0
 74
    0
 49
-12.7
 74
    0
  0
LTYPE
  5
46
330
5
100
AcDbSymbolTableRecord
100
AcDbLinetypeTableRecord
  2
CENTER
 70
    0
  3
Center ____ _ ____ _ ____ _ ____ _ ____ _ ____
 72
   65
 73
    4
 40
50.8
 49
31.75
 74
    0
 49
-6.35
 74
    0
 49
6.35
 74
    0
 49
-6.35
 74
    0
  0
LTYPE
  5
47
330
5
100
AcDbSymbolTableRecord
100
AcDbLinetypeTableRecord
  2
CENTERTINY
 70
    0
  3
Center (.15x) ___ _ ___ _ ___ _ ___ _ ___ _ ___
 72
   65
 73
    4
 40
7.619999999999999
 49
4.7625
 74
    0
 49
-0.9525
 74
    0
 49
0.9525
 74
    0
 49
-0.9525
 74
    0
  0
LTYPE
  5
48
330
5
100
AcDbSymbolTableRecord
100
AcDbLinetypeTableRecord
  2
CENTER2
 70
    0
  3
Center (.5x) ___ _ ___ _ ___ _ ___ _ ___ _ ___
 72
   65
 73
    4
 40
28.575
 49
19.05
 74
    0
 49
-3.175
 74
    0
 49
3.175
 74
    0
 49
-3.175
 74
    0
  0
LTYPE
  5
49
330
5
100
AcDbSymbolTableRecord
100
AcDbLinetypeTableRecord
  2
CENTERX2
 70
    0
  3
Center (2x) ________  __  ________  __  _____
 72
   65
 73
    4
 40
101.6
 49
63.5
 74
    0
 49
-12.7
 74
    0
 49
12.7
 74
    0
 49
-12.7
 74
    0
  0
ENDTAB
  0
TABLE
  2
LAYER
  5
2
330
0
100
AcDbSymbolTable
 70
    1
  0
LAYER
  5
10
330
2
100
AcDbSymbolTableRecord
100
AcDbLayerTableRecord
  2
0
 70
    0
 62
    7
  6
CONTINUOUS
370
   -3
390
F
  0
LAYER
  5
4A
330
2
100
AcDbSymbolTableRecord
100
AcDbLayerTableRecord
  2
pocket-0.5mm
 70
    0
 62
    4
  6
CONTINUOUS
370
    0
390
F
  0
LAYER
  5
4B
330
2
100
AcDbSymbolTableRecord
100
AcDbLayerTableRecord
  2
profiling
 70
    0
 62
    3
  6
CONTINUOUS
370
    0
390
F
  0
LAYER
  5
4C
330
2
100
AcDbSymbolTableRecord
100
AcDbLayerTableRecord
  2
vcut
 70
    0
 62
    6
  6
CONTINUOUS
370
    0
390
F
  0
ENDTAB
  0
TABLE
  2
STYLE
  5
3
330
0
100
AcDbSymbolTable
 70
    3
  0
STYLE
  5
4D
330
2
100
AcDbSymbolTableRecord
100
AcDbTextStyleTableRecord
  2
Standard
 70
    0
 40
0
 41
1
 50
0
 71
    0
 42
1
  3
txt
  4

  0
ENDTAB
  0
TABLE
  2
VIEW
  5
6
330
0
100
AcDbSymbolTable
 70
    0
  0
ENDTAB
  0
TABLE
  2
UCS
  5
7
330
0
100
AcDbSymbolTable
 70
    0
  0
ENDTAB
  0
TABLE
  2
APPID
  5
9
330
0
100
AcDbSymbolTable
 70
    1
  0
APPID
  5
12
330
9
100
AcDbSymbolTableRecord
100
AcDbRegAppTableRecord
  2
ACAD
 70
    0
  0
APPID
  5
4E
330
9
100
AcDbSymbolTableRecord
100
AcDbRegAppTableRecord
  2
LibreCad
 70
    0
  0
ENDTAB
  0
TABLE
  2
DIMSTYLE
  5
A
330
0
100
AcDbSymbolTable
 70
    1
100
AcDbDimStyleTable
 71
    1
  0
DIMSTYLE
105
4F
330
A
100
AcDbSymbolTableRecord
100
AcDbDimStyleTableRecord
  2
Standard
 70
    0
 40
2.5
 41
2.5
 42
0.625
 43
0.38
 44
1.25
 45
0
 46
0
 47
0
 48
0
 49
1
140
2.5
141
0.09
142
0
143
25.4
144
1
145
0
146
1
147
0.625
148
0
 71
    0
 72
    0
 73
    0
 74
    1
 75
    0
 76
    0
 77
    0
 78
    8
 79
    0
170
    0
171
    2
172
    0
173
    0
174
    0
175
    0
176
    0
177
    0
178
    0
179
    0
271
    2
272
    4
273
    2
274
    2
275
    0
276
    0
277
    2
278
   44
279
    0
280
    0
281
    0
282
    0
283
    1
284
    0
285
    0
286
    0
288
    0
289
    3
340
STANDARD
341

371
   -2
372
   -2
  0
ENDTAB
  0
TABLE
  2
BLOCK_RECORD
  5
1
330
0
100
AcDbSymbolTable
 70
    2
  0
BLOCK_RECORD
  5
1F
330
1
100
AcDbSymbolTableRecord
100
AcDbBlockTableRecord
  2
*Model_Space
 70
    0
280
    1
281
    0
  0
BLOCK_RECORD
  5
1E
330
1
100
AcDbSymbolTableRecord
100
AcDbBlockTableRecord
  2
*Paper_Space
 70
    0
280
    1
281
    0
  0
ENDTAB
  0
ENDSEC
  0
SECTION
  2
BLOCKS
  0
BLOCK
  5
20
330
1F
100
AcDbEntity
  8
0
100
AcDbBlockBegin
  2
*Model_Space
 70
    0
 10
0
 20
0
 30
0
  3
*Model_Space
  1

  0
ENDBLK
  5
21
330
1F
100
AcDbEntity
  8
0
100
AcDbBlockEnd
  0
BLOCK
  5
1C
330
1B
100
AcDbEntity
  8
0
100
AcDbBlockBegin
  2
*Paper_Space
 70
    0
 10
0
 20
0
 30
0
  3
*Paper_Space
  1

  0
ENDBLK
  5
1D
330
1F
100
AcDbEntity
  8
0
100
AcDbBlockEnd
  0
ENDSEC
  0
SECTION
  2
ENTITIES
  0
LWPOLYLINE
  5
50
100
AcDbEntity
  8
pocket-0.5mm
  6
ByLayer
 62
  256
370
   -1
100
AcDbPolyline
 90
   32
 70
    1
 43
0
 10
593.451
 20
298.58625
 10
593.6595
 20
299.2725
 10
593.99775
 20
299.9055
 10
594.453
 20
300.45975
 10
595.00725
 20
300.915
 10
595.64025
 20
301.25325
 10
596.3265
 20
301.46175
 10
597.0405
 20
301.53225
 10
597.7545
 20
301.46175
 10
598.44075
 20
301.25325
 10
599.07375
 20
300.915
 10
599.628
 20
300.45975
 10
600.08325
 20
299.9055
 10
600.4215
 20
299.2725
 10
600.63
 20
298.58625
 10
600.7005
 20
297.87225
 10
600.63
 20
297.15825
 10
600.4215
 20
296.472
 10
600.08325
 20
295.839
 10
599.628
 20
295.28475
 10
599.07375
 20
294.8295
 10
598.44075
 20
294.49125
 10
597.7545
 20
294.28275
 10
597.0405
 20
294.21225
 10
596.3265
 20
294.28275
 10
595.64025
 20
294.49125
 10
595.00725
 20
294.8295
 10
594.453
 20
295.28475
 10
593.99775
 20
295.839
 10
593.6595
 20
296.472
 10
593.451
 20
297.15825
 10
593.3805
 20
297.87225
  0
LWPOLYLINE
  5
51
100
AcDbEntity
  8
pocket-0.5mm
  6
ByLayer
 62
  256
370
   -1
100
AcDbPolyline
 90
   32
 70
    1
 43
0
 10
593.451
 20
251.38275
 10
593.6595
 20
252.069
 10
593.99775
 20
252.702
 10
594.453
 20
253.25625
 10
595.00725
 20
253.7115
 10
595.64025
 20
254.04975
 10
596.3265
 20
254.25825
 10
597.0405
 20
254.32875
 10
597.7545
 20
254.25825
 10
598.44075
 20
254.04975
 10
599.07375
 20
253.7115
 10
599.628
 20
253.25625
 10
600.08325
 20
252.702
 10
600.4215
 20
252.069
 10
600.63
 20
251.38275
 10
600.7005
 20
250.66875
 10
600.63
 20
249.95475
 10
600.4215
 20
249.2685
 10
600.08325
 20
248.6355
 10
599.628
 20
248.08125
 10
599.07375
 20
247.626
 10
598.44075
 20
247.28775
 10
597.7545
 20
247.07925
 10
597.0405
 20
247.00875
 10
596.3265
 20
247.07925
 10
595.64025
 20
247.28775
 10
595.00725
 20
247.626
 10
594.453
 20
248.08125
 10
593.99775
 20
248.6355
 10
593.6595
 20
249.2685
 10
593.451
 20
249.95475
 10
593.3805
 20
250.66875
  0
LWPOLYLINE
  5
52
100
AcDbEntity
  8
profiling
  6
ByLayer
 62
  256
370
   -1
100
AcDbPolyline
 90
  268
 70
    1
 43
0
 10
625.8285
 20
280.3605
 10
626.079
 20
278.32725
 10
626.079
 20
278.32725
 10
626.22975
 20
276.2835
 10
626.22975
 20
276.2835
 10
626.28
 20
274.23525
 10
626.28
 20
274.23525
 10
626.28
 20
274.23525
 10
626.22975
 20
272.187
 10
626.22975
 20
272.187
 10
626.22975
 20
272.187
 10
626.22975
 20
272.187
 10
626.079
 20
270.14325
 10
626.079
 20
270.14325
 10
625.8285
 20
268.11
 10
625.8285
 20
268.11
 10
625.8285
 20
268.11
 10
625.8285
 20
268.11
 10
625.47825
 20
266.091
 10
625.47825
 20
266.091
 10
625.029
 20
264.0915
 10
625.029
 20
264.0915
 10
625.029
 20
264.0915
 10
625.029
 20
264.0915
 10
624.48225
 20
262.11675
 10
624.48225
 20
262.11675
 10
623.8395
 20
260.17125
 10
623.8395
 20
260.17125
 10
623.8395
 20
260.17125
 10
623.8395
 20
260.17125
 10
623.10225
 20
258.2595
 10
623.10225
 20
258.2595
 10
622.272
 20
256.386
 10
622.272
 20
256.386
 10
622.272
 20
256.386
 10
622.272
 20
256.386
 10
621.351
 20
254.556
 10
621.351
 20
254.556
 10
620.34075
 20
252.77325
 10
620.34075
 20
252.77325
 10
620.34075
 20
252.77325
 10
620.34075
 20
252.77325
 10
619.24425
 20
251.04225
 10
619.24425
 20
251.04225
 10
618.0645
 20
249.36675
 10
618.0645
 20
249.36675
 10
618.0645
 20
249.36675
 10
618.0645
 20
249.36675
 10
616.80375
 20
247.75125
 10
616.80375
 20
247.75125
 10
615.46575
 20
246.1995
 10
615.46575
 20
246.1995
 10
614.0527499999999
 20
244.71525
 10
614.0527499999999
 20
244.71525
 10
614.0527499999999
 20
244.71525
 10
612.5685
 20
243.30225
 10
612.5685
 20
243.30225
 10
612.5685
 20
243.30225
 10
612.5685
 20
243.30225
 10
611.01675
 20
241.96425
 10
611.01675
 20
241.96425
 10
611.01675
 20
241.96425
 10
609.40125
 20
240.7035
 10
609.40125
 20
240.7035
 10
607.7257499999999
 20
239.52375
 10
607.7257499999999
 20
239.52375
 10
605.99475
 20
238.42725
 10
605.99475
 20
238.42725
 10
604.212
 20
237.417
 10
604.212
 20
237.417
 10
602.3819999999999
 20
236.496
 10
602.3819999999999
 20
236.496
 10
600.5085
 20
235.66575
 10
600.5085
 20
235.66575
 10
598.59675
 20
234.9285
 10
598.59675
 20
234.9285
 10
596.65125
 20
234.28575
 10
596.65125
 20
234.28575
 10
594.6765
 20
233.739
 10
594.6765
 20
233.739
 10
592.677
 20
233.28975
 10
592.677
 20
233.28975
 10
590.658
 20
232.9395
 10
590.658
 20
232.9395
 10
590.658
 20
232.9395
 10
588.6247499999999
 20
232.689
 10
588.6247499999999
 20
232.689
 10
586.581
 20
232.53825
 10
586.581
 20
232.53825
 10
586.581
 20
232.53825
 10
586.581
 20
232.53825
 10
570.31875
 20
232.48125
 10
570.31875
 20
232.48125
 10
570.31875
 20
232.48125
 10
570.31875
 20
232.48125
 10
429.609
 20
232.48125
 10
420.47025
 20
232.48125
 10
420.47025
 20
232.48125
 10
419.8305
 20
232.51275
 10
419.8305
 20
232.51275
 10
419.8305
 20
232.51275
 10
419.8305
 20
232.51275
 10
419.19675
 20
232.6065
 10
419.19675
 20
232.6065
 10
418.57575
 20
232.7625
 10
418.57575
 20
232.7625
 10
418.57575
 20
232.7625
 10
418.57575
 20
232.7625
 10
417.97275
 20
232.9785
 10
417.97275
 20
232.9785
 10
417.39375
 20
233.25225
 10
417.39375
 20
233.25225
 10
417.39375
 20
233.25225
 10
417.39375
 20
233.25225
 10
416.844
 20
233.5815
 10
416.844
 20
233.5815
 10
416.3295
 20
233.96325
 10
416.3295
 20
233.96325
 10
416.3295
 20
233.96325
 10
416.3295
 20
233.96325
 10
415.85475
 20
234.39375
 10
415.85475
 20
234.39375
 10
415.42425
 20
234.8685
 10
415.42425
 20
234.8685
 10
415.42425
 20
234.8685
 10
415.42425
 20
234.8685
 10
415.0425
 20
235.383
 10
415.0425
 20
235.383
 10
414.71325
 20
235.93275
 10
414.71325
 20
235.93275
 10
414.71325
 20
235.93275
 10
414.71325
 20
235.93275
 10
414.4395
 20
236.51175
 10
414.4395
 20
236.51175
 10
414.2235
 20
237.11475
 10
414.2235
 20
237.11475
 10
414.2235
 20
237.11475
 10
414.2235
 20
237.11475
 10
414.0675
 20
237.7365
 10
414.0675
 20
237.7365
 10
413.97375
 20
238.37025
 10
413.97375
 20
238.37025
 10
413.97375
 20
238.37025
 10
413.94225
 20
239.01
 10
413.94225
 20
239.01
 10
413.94225
 20
239.01
 10
413.94225
 20
274.23525
 10
413.94225
 20
309.4605
 10
413.94225
 20
309.4605
 10
413.94225
 20
309.4605
 10
413.97375
 20
310.10025
 10
413.97375
 20
310.10025
 10
414.0675
 20
310.734
 10
414.0675
 20
310.734
 10
414.2235
 20
311.35575
 10
414.2235
 20
311.35575
 10
414.4395
 20
311.95875
 10
414.4395
 20
311.95875
 10
414.71325
 20
312.53775
 10
414.71325
 20
312.53775
 10
415.0425
 20
313.0875
 10
415.0425
 20
313.0875
 10
415.42425
 20
313.602
 10
415.42425
 20
313.602
 10
415.85475
 20
314.07675
 10
415.85475
 20
314.07675
 10
416.3295
 20
314.50725
 10
416.3295
 20
314.50725
 10
416.844
 20
314.889
 10
416.844
 20
314.889
 10
417.39375
 20
315.21825
 10
417.39375
 20
315.21825
 10
417.97275
 20
315.492
 10
417.97275
 20
315.492
 10
418.57575
 20
315.708
 10
418.57575
 20
315.708
 10
419.1975
 20
315.864
 10
419.1975
 20
315.864
 10
419.83125
 20
315.95775
 10
419.83125
 20
315.95775
 10
419.83125
 20
315.95775
 10
419.83125
 20
315.95775
 10
420.471
 20
315.98925
 10
420.471
 20
315.98925
 10
429.60975
 20
315.98925
 10
570.3194999999999
 20
315.98925
 10
570.3194999999999
 20
315.98925
 10
570.3194999999999
 20
315.98925
 10
586.5817500000001
 20
315.93225
 10
586.5817500000001
 20
315.93225
 10
586.5817500000001
 20
315.93225
 10
586.5817500000001
 20
315.93225
 10
588.6255
 20
315.7815
 10
588.6255
 20
315.7815
 10
590.6587500000001
 20
315.531
 10
590.6587500000001
 20
315.531
 10
590.6587500000001
 20
315.531
 10
590.6587500000001
 20
315.531
 10
592.6777499999999
 20
315.18075
 10
592.6777499999999
 20
315.18075
 10
594.67725
 20
314.7315
 10
594.67725
 20
314.7315
 10
594.67725
 20
314.7315
 10
594.67725
 20
314.7315
 10
594.67725
 20
314.7315
 10
596.652
 20
314.18475
 10
596.652
 20
314.18475
 10
598.5975
 20
313.542
 10
598.5975
 20
313.542
 10
598.5975
 20
313.542
 10
598.5975
 20
313.542
 10
598.5975
 20
313.542
 10
600.50925
 20
312.80475
 10
600.50925
 20
312.80475
 10
602.38275
 20
311.9745
 10
602.38275
 20
311.9745
 10
602.38275
 20
311.9745
 10
602.38275
 20
311.9745
 10
604.21275
 20
311.0535
 10
604.21275
 20
311.0535
 10
605.9955
 20
310.04325
 10
605.9955
 20
310.04325
 10
605.9955
 20
310.04325
 10
605.9955
 20
310.04325
 10
607.7265
 20
308.94675
 10
607.7265
 20
308.94675
 10
609.402
 20
307.767
 10
609.402
 20
307.767
 10
609.402
 20
307.767
 10
609.402
 20
307.767
 10
611.0175
 20
306.50625
 10
611.0175
 20
306.50625
 10
612.56925
 20
305.16825
 10
612.56925
 20
305.16825
 10
612.56925
 20
305.16825
 10
612.56925
 20
305.16825
 10
614.0535
 20
303.75525
 10
614.0535
 20
303.75525
 10
615.4665
 20
302.271
 10
615.4665
 20
302.271
 10
615.4665
 20
302.271
 10
615.4665
 20
302.271
 10
616.8045
 20
300.71925
 10
616.8045
 20
300.71925
 10
618.06525
 20
299.10375
 10
618.06525
 20
299.10375
 10
618.06525
 20
299.10375
 10
619.245
 20
297.42825
 10
619.245
 20
297.42825
 10
620.3415
 20
295.69725
 10
620.3415
 20
295.69725
 10
621.35175
 20
293.9145
 10
621.35175
 20
293.9145
 10
622.27275
 20
292.0845
 10
622.27275
 20
292.0845
 10
623.103
 20
290.211
 10
623.103
 20
290.211
 10
623.84025
 20
288.29925
 10
623.84025
 20
288.29925
 10
624.4829999999999
 20
286.35375
 10
624.4829999999999
 20
286.35375
 10
624.4829999999999
 20
286.35375
 10
625.02975
 20
284.379
 10
625.02975
 20
284.379
 10
625.479
 20
282.3795
 10
625.479
 20
282.3795
 10
625.82925
 20
280.3605
 10
625.82925
 20
280.3605
  0
LWPOLYLINE
  5
53
100
AcDbEntity
  8
profiling
  6
ByLayer
 62
  256
370
   -1
100
AcDbPolyline
 90
   35
 70
    1
 43
0
 10
517.0725
 20
300.35325
 10
517.43325
 20
300.546
 10
517.7497499999999
 20
300.8055
 10
518.00925
 20
301.122
 10
518.202
 20
301.4835
 10
518.3205
 20
301.875
 10
518.349
 20
302.16225
 10
518.361
 20
302.28225
 10
518.3205
 20
302.6895
 10
518.256
 20
302.9025
 10
518.202
 20
303.081
 10
518.00925
 20
303.4425
 10
517.7497499999999
 20
303.759
 10
517.43325
 20
304.0185
 10
517.0725
 20
304.21125
 10
516.68025
 20
304.32975
 10
516.273
 20
304.37025
 10
515.86575
 20
304.32975
 10
515.47425
 20
304.21125
 10
515.11275
 20
304.0185
 10
514.79625
 20
303.759
 10
514.53675
 20
303.4425
 10
514.3440000000001
 20
303.081
 10
514.2255
 20
302.6895
 10
514.1849999999999
 20
302.28225
 10
514.2255
 20
301.875
 10
514.3440000000001
 20
301.4835
 10
514.53675
 20
301.122
 10
514.79625
 20
300.8055
 10
515.11275
 20
300.546
 10
515.47425
 20
300.35325
 10
515.86575
 20
300.23475
 10
516.273
 20
300.19425
 10
516.68025
 20
300.23475
 10
517.0725
 20
300.35325
  0
LWPOLYLINE
  5
54
100
AcDbEntity
  8
profiling
  6
ByLayer
 62
  256
370
   -1
100
AcDbPolyline
 90
   36
 70
    1
 43
0
 10
439.37025
 20
303.0825
 10
439.1775
 20
303.444
 10
438.918
 20
303.7605
 10
438.6015
 20
304.02
 10
438.24075
 20
304.21275
 10
437.8485
 20
304.33125
 10
437.44125
 20
304.37175
 10
437.034
 20
304.33125
 10
436.6425
 20
304.21275
 10
436.281
 20
304.02
 10
435.9645
 20
303.7605
 10
435.705
 20
303.444
 10
435.51225
 20
303.0825
 10
435.39375
 20
302.691
 10
435.354
 20
302.28375
 10
435.39375
 20
301.8765
 10
435.49125
 20
301.55625
 10
435.513
 20
301.48425
 10
435.60825
 20
301.30575
 10
435.70575
 20
301.1235
 10
435.96525
 20
300.807
 10
436.15425
 20
300.65175
 10
436.28175
 20
300.54675
 10
436.64325
 20
300.354
 10
437.03475
 20
300.23475
 10
437.442
 20
300.19425
 10
437.84925
 20
300.23475
 10
438.2415
 20
300.354
 10
438.60225
 20
300.54675
 10
438.91875
 20
300.80625
 10
439.17825
 20
301.12275
 10
439.371
 20
301.48425
 10
439.4895
 20
301.87575
 10
439.53
 20
302.283
 10
439.4895
 20
302.69025
 10
439.371
 20
303.08175
  0
LWPOLYLINE
  5
55
100
AcDbEntity
  8
profiling
  6
ByLayer
 62
  256
370
   -1
100
AcDbPolyline
 90
   39
 70
    1
 43
0
 10
529.941
 20
310.15425
 10
529.6815
 20
309.83775
 10
529.48875
 20
309.47625
 10
529.4025
 20
309.1905
 10
529.3702500000001
 20
309.084
 10
529.32975
 20
308.67675
 10
529.3702500000001
 20
308.2695
 10
529.45725
 20
307.9815
 10
529.48875
 20
307.87725
 10
529.6815
 20
307.51575
 10
529.941
 20
307.19925
 10
530.2575000000001
 20
306.93975
 10
530.619
 20
306.747
 10
531.01125
 20
306.6285
 10
531.4185
 20
306.588
 10
531.82575
 20
306.6285
 10
532.21725
 20
306.747
 10
532.57875
 20
306.93975
 10
532.89525
 20
307.19925
 10
533.06175
 20
307.4025
 10
533.15475
 20
307.51575
 10
533.3475
 20
307.87725
 10
533.466
 20
308.26875
 10
533.5065
 20
308.676
 10
533.466
 20
309.08325
 10
533.3475
 20
309.47475
 10
533.15475
 20
309.83625
 10
533.03175
 20
309.9855
 10
532.8945
 20
310.15275
 10
532.578
 20
310.41225
 10
532.2165
 20
310.605
 10
531.825
 20
310.7235
 10
531.41775
 20
310.764
 10
531.0105
 20
310.7235
 10
530.796
 20
310.65825
 10
530.619
 20
310.60425
 10
530.55525
 20
310.56975
 10
530.25825
 20
310.41075
 10
529.94175
 20
310.15125
  0
LWPOLYLINE
  5
56
100
AcDbEntity
  8
profiling
  6
ByLayer
 62
  256
370
   -1
100
AcDbPolyline
 90
   86
 70
    1
 43
0
 10
567.1455
 20
240.19425
 10
570.32025
 20
240.66525
 10
570.32025
 20
240.66525
 10
570.36375
 20
240.672
 10
570.46575
 20
240.687
 10
573.72225
 20
241.503
 10
576.88275
 20
242.634
 10
578.4
 20
243.35175
 10
579.91725
 20
244.0695
 10
582.7965
 20
245.79525
 10
585.49275
 20
247.79475
 10
587.97975
 20
250.04925
 10
590.23425
 20
252.53625
 10
592.23375
 20
255.2325
 10
593.9595
 20
258.11175
 10
595.395
 20
261.14625
 10
596.2155
 20
263.4405
 10
596.52525
 20
264.30675
 10
597.3412499999999
 20
267.56325
 10
597.8339999999999
 20
270.8835
 10
597.999
 20
274.236
 10
597.8339999999999
 20
277.5885
 10
597.3412499999999
 20
280.90875
 10
596.526
 20
284.16525
 10
595.395
 20
287.32575
 10
593.9595
 20
290.36025
 10
593.043
 20
291.8895
 10
592.23375
 20
293.2395
 10
590.775
 20
295.206
 10
590.775
 20
295.206
 10
590.23425
 20
295.935
 10
587.97975
 20
298.422
 10
585.49275
 20
300.6765
 10
582.7965
 20
302.676
 10
579.91725
 20
304.40175
 10
576.88275
 20
305.83725
 10
573.72225
 20
306.96825
 10
570.46575
 20
307.7835
 10
570.41175
 20
307.79175
 10
570.32025
 20
307.80525
 10
570.32025
 20
307.80525
 10
567.1455
 20
308.27625
 10
563.793
 20
308.44125
 10
560.4405
 20
308.27625
 10
557.1202500000001
 20
307.7835
 10
553.86375
 20
306.96825
 10
550.70325
 20
305.83725
 10
548.0865
 20
304.59975
 10
547.66875
 20
304.40175
 10
544.7895
 20
302.676
 10
542.09325
 20
300.6765
 10
541.3507499999999
 20
300.003
 10
539.60625
 20
298.422
 10
537.35175
 20
295.935
 10
535.35225
 20
293.23875
 10
533.6265
 20
290.3595
 10
532.191
 20
287.325
 10
531.4695
 20
285.3075
 10
531.06075
 20
284.1645
 10
530.24475
 20
280.908
 10
529.752
 20
277.58775
 10
529.7257499999999
 20
277.05375
 10
529.587
 20
274.2345
 10
529.7257499999999
 20
271.41525
 10
529.752
 20
270.88125
 10
530.24475
 20
267.561
 10
531.0599999999999
 20
264.3045
 10
532.191
 20
261.144
 10
533.6265
 20
258.1095
 10
534.41775
 20
256.7895
 10
535.35225
 20
255.23025
 10
537.35175
 20
252.534
 10
539.60625
 20
250.047
 10
541.32375
 20
248.49075
 10
542.0940000000001
 20
247.79325
 10
544.79025
 20
245.79375
 10
546.18975
 20
244.9545
 10
547.6695
 20
244.068
 10
549.01575
 20
243.43125
 10
550.704
 20
242.6325
 10
553.8645
 20
241.5015
 10
554.9902499999999
 20
241.2195
 10
557.1202500000001
 20
240.68625
 10
560.4405
 20
240.1935
 10
563.793
 20
240.0285
 10
567.1455
 20
240.1935
  0
LWPOLYLINE
  5
57
100
AcDbEntity
  8
profiling
  6
ByLayer
 62
  256
370
   -1
100
AcDbPolyline
 90
   41
 70
    1
 43
0
 10
615.71475
 20
273.5985
 10
615.90075
 20
272.9865
 10
616.20225
 20
272.4225
 10
616.245
 20
272.37075
 10
616.6079999999999
 20
271.92825
 10
616.84275
 20
271.7355
 10
617.10225
 20
271.5225
 10
617.4015000000001
 20
271.36275
 10
617.667
 20
271.221
 10
618.1319999999999
 20
271.08
 10
618.279
 20
271.035
 10
618.67275
 20
270.996
 10
618.91575
 20
270.972
 10
619.23375
 20
271.0035
 10
619.5525
 20
271.035
 10
620.1645
 20
271.221
 10
620.7195
 20
271.518
 10
620.7285000000001
 20
271.5225
 10
621.22275
 20
271.92825
 10
621.6285
 20
272.4225
 10
621.9299999999999
 20
272.9865
 10
622.116
 20
273.5985
 10
622.179
 20
274.23525
 10
622.116
 20
274.872
 10
621.9299999999999
 20
275.484
 10
621.6285
 20
276.048
 10
621.22275
 20
276.54225
 10
620.7285000000001
 20
276.948
 10
620.1645
 20
277.2495
 10
619.5525
 20
277.4355
 10
619.404
 20
277.4505
 10
618.91575
 20
277.4985
 10
618.279
 20
277.4355
 10
617.667
 20
277.2495
 10
617.103
 20
276.948
 10
616.60875
 20
276.54225
 10
616.203
 20
276.048
 10
615.9015000000001
 20
275.484
 10
615.7155
 20
274.872
 10
615.6525
 20
274.23525
 10
615.7155
 20
273.5985
  0
LWPOLYLINE
  5
58
100
AcDbEntity
  8
profiling
  6
ByLayer
 62
  256
370
   -1
100
AcDbPolyline
 90
   35
 70
    1
 43
0
 10
595.563
 20
252.14625
 10
595.3035
 20
251.82975
 10
595.1107500000001
 20
251.46825
 10
594.99225
 20
251.07675
 10
594.9712500000001
 20
250.863
 10
594.9525
 20
250.6695
 10
594.99225
 20
250.26225
 10
595.1107500000001
 20
249.87075
 10
595.3035
 20
249.50925
 10
595.563
 20
249.19275
 10
595.8795
 20
248.93325
 10
596.241
 20
248.7405
 10
596.6325000000001
 20
248.622
 10
597.03975
 20
248.5815
 10
597.447
 20
248.622
 10
597.83925
 20
248.7405
 10
598.2
 20
248.93325
 10
598.5165
 20
249.19275
 10
598.776
 20
249.50925
 10
598.96875
 20
249.87075
 10
599.08725
 20
250.26225
 10
599.12775
 20
250.6695
 10
599.08725
 20
251.07675
 10
598.96875
 20
251.46825
 10
598.776
 20
251.829
 10
598.5165
 20
252.1455
 10
598.2
 20
252.405
 10
597.83925
 20
252.59775
 10
597.447
 20
252.71625
 10
597.03975
 20
252.75675
 10
596.7982500000001
 20
252.73275
 10
596.6325000000001
 20
252.71625
 10
596.241
 20
252.59775
 10
595.8795
 20
252.405
 10
595.563
 20
252.1455
  0
LWPOLYLINE
  5
59
100
AcDbEntity
  8
profiling
  6
ByLayer
 62
  256
370
   -1
100
AcDbPolyline
 90
   35
 70
    1
 43
0
 10
533.466
 20
239.38575
 10
533.5065
 20
239.793
 10
533.466
 20
240.20025
 10
533.3475
 20
240.59175
 10
533.15475
 20
240.95325
 10
533.0955
 20
241.026
 10
532.89525
 20
241.26975
 10
532.725
 20
241.40925
 10
532.57875
 20
241.52925
 10
532.21725
 20
241.722
 10
531.82575
 20
241.8405
 10
531.4185
 20
241.881
 10
531.01125
 20
241.8405
 10
530.619
 20
241.722
 10
530.25825
 20
241.52925
 10
529.94175
 20
241.26975
 10
529.68225
 20
240.95325
 10
529.4895
 20
240.59175
 10
529.371
 20
240.20025
 10
529.3305
 20
239.793
 10
529.371
 20
239.38575
 10
529.4895
 20
238.99425
 10
529.68225
 20
238.63275
 10
529.94175
 20
238.31625
 10
530.25825
 20
238.05675
 10
530.619
 20
237.864
 10
531.01125
 20
237.74475
 10
531.4185
 20
237.705
 10
531.82575
 20
237.74475
 10
532.21725
 20
237.864
 10
532.57875
 20
238.05675
 10
532.89525
 20
238.31625
 10
533.15475
 20
238.63275
 10
533.3475
 20
238.99425
 10
533.466
 20
239.38575
  0
LWPOLYLINE
  5
5A
100
AcDbEntity
  8
profiling
  6
ByLayer
 62
  256
370
   -1
100
AcDbPolyline
 90
   37
 70
    1
 43
0
 10
515.4734999999999
 20
248.12025
 10
515.3175
 20
248.037
 10
515.112
 20
247.9275
 10
514.7954999999999
 20
247.668
 10
514.5359999999999
 20
247.3515
 10
514.34325
 20
246.99075
 10
514.22475
 20
246.59925
 10
514.18425
 20
246.192
 10
514.22475
 20
245.78475
 10
514.34325
 20
245.39325
 10
514.5359999999999
 20
245.0325
 10
514.647
 20
244.8975
 10
514.7954999999999
 20
244.716
 10
515.112
 20
244.4565
 10
515.4734999999999
 20
244.26375
 10
515.865
 20
244.14525
 10
516.27225
 20
244.10475
 10
516.6795
 20
244.14525
 10
516.855
 20
244.1985
 10
517.07175
 20
244.2645
 10
517.4325
 20
244.45725
 10
517.749
 20
244.71675
 10
518.0085
 20
245.03325
 10
518.20125
 20
245.394
 10
518.31975
 20
245.7855
 10
518.36025
 20
246.19275
 10
518.3415
 20
246.3795
 10
518.31975
 20
246.6
 10
518.20125
 20
246.9915
 10
518.0085
 20
247.353
 10
517.749
 20
247.6695
 10
517.4325
 20
247.929
 10
517.071
 20
248.12175
 10
516.6795
 20
248.24025
 10
516.27225
 20
248.28075
 10
515.865
 20
248.24025
 10
515.47275
 20
248.12175
  0
LWPOLYLINE
  5
5B
100
AcDbEntity
  8
profiling
  6
ByLayer
 62
  256
370
   -1
100
AcDbPolyline
 90
   35
 70
    1
 43
0
 10
439.5285
 20
246.1905
 10
439.488
 20
246.59775
 10
439.42575
 20
246.80325
 10
439.3695
 20
246.98925
 10
439.17675
 20
247.34925
 10
439.176
 20
247.35
 10
438.9165
 20
247.6665
 10
438.6
 20
247.926
 10
438.2385
 20
248.11875
 10
437.847
 20
248.23725
 10
437.43975
 20
248.27775
 10
437.0325
 20
248.23725
 10
436.641
 20
248.11875
 10
436.2795
 20
247.926
 10
435.963
 20
247.6665
 10
435.7035
 20
247.35
 10
435.51075
 20
246.9885
 10
435.39225
 20
246.597
 10
435.35175
 20
246.18975
 10
435.39225
 20
245.7825
 10
435.51075
 20
245.391
 10
435.7035
 20
245.0295
 10
435.963
 20
244.713
 10
436.2795
 20
244.4535
 10
436.641
 20
244.26075
 10
437.0325
 20
244.1415
 10
437.43975
 20
244.10175
 10
437.847
 20
244.1415
 10
438.2385
 20
244.26075
 10
438.6
 20
244.4535
 10
438.9165
 20
244.713
 10
439.176
 20
245.0295
 10
439.36875
 20
245.391
 10
439.48725
 20
245.7825
 10
439.52775
 20
246.18975
  0
LWPOLYLINE
  5
5C
100
AcDbEntity
  8
profiling
  6
ByLayer
 62
  256
370
   -1
100
AcDbPolyline
 90
   36
 70
    1
 43
0
 10
597.8385
 20
299.802
 10
597.447
 20
299.92125
 10
597.03975
 20
299.96175
 10
596.6325000000001
 20
299.92125
 10
596.241
 20
299.80275
 10
595.8795
 20
299.61
 10
595.563
 20
299.3505
 10
595.3035
 20
299.034
 10
595.1107500000001
 20
298.6725
 10
594.99225
 20
298.281
 10
594.9517499999999
 20
297.87375
 10
594.9915
 20
297.471
 10
594.99225
 20
297.4665
 10
595.1107500000001
 20
297.075
 10
595.3035
 20
296.7135
 10
595.563
 20
296.397
 10
595.8795
 20
296.1375
 10
596.241
 20
295.94475
 10
596.6325000000001
 20
295.82625
 10
597.03975
 20
295.78575
 10
597.447
 20
295.82625
 10
597.8385
 20
295.94475
 10
598.2
 20
296.1375
 10
598.5165
 20
296.397
 10
598.776
 20
296.7135
 10
598.96875
 20
297.075
 10
599.08725
 20
297.4665
 10
599.11575
 20
297.7545
 10
599.12775
 20
297.87375
 10
599.08725
 20
298.281
 10
598.96875
 20
298.6725
 10
598.85775
 20
298.88025
 10
598.776
 20
299.03325
 10
598.5165
 20
299.34975
 10
598.2
 20
299.60925
 10
597.8385
 20
299.802
  0
LWPOLYLINE
  5
5D
100
AcDbEntity
  8
profiling
  6
ByLayer
 62
  256
370
   -1
100
AcDbPolyline
 90
   37
 70
    1
 43
0
 10
422.18325
 20
306.1065
 10
422.57475
 20
306.225
 10
422.9355
 20
306.41775
 10
423.0855
 20
306.54075
 10
423.252
 20
306.67725
 10
423.5115
 20
306.99375
 10
423.70425
 20
307.35525
 10
423.82275
 20
307.74675
 10
423.84975
 20
308.01675
 10
423.86325
 20
308.154
 10
423.82275
 20
308.56125
 10
423.75975
 20
308.76975
 10
423.70425
 20
308.95275
 10
423.5115
 20
309.31425
 10
423.252
 20
309.63075
 10
422.9355
 20
309.89025
 10
422.57475
 20
310.083
 10
422.18325
 20
310.2015
 10
421.776
 20
310.242
 10
421.36875
 20
310.2015
 10
420.97725
 20
310.083
 10
420.61575
 20
309.89025
 10
420.29925
 20
309.63075
 10
420.03975
 20
309.31425
 10
419.847
 20
308.95275
 10
419.7285
 20
308.56125
 10
419.688
 20
308.154
 10
419.7285
 20
307.74675
 10
419.847
 20
307.35525
 10
420.03975
 20
306.99375
 10
420.29925
 20
306.67725
 10
420.61575
 20
306.41775
 10
420.9765
 20
306.225
 10
421.36875
 20
306.1065
 10
421.776
 20
306.066
 10
422.061
 20
306.09375
 10
422.18325
 20
306.10575
  0
LWPOLYLINE
  5
5E
100
AcDbEntity
  8
profiling
  6
ByLayer
 62
  256
370
   -1
100
AcDbPolyline
 90
   42
 70
    1
 43
0
 10
423.51225
 20
275.42025
 10
423.25275
 20
275.73675
 10
422.93625
 20
275.99625
 10
422.5755
 20
276.189
 10
422.18325
 20
276.3075
 10
421.776
 20
276.348
 10
421.36875
 20
276.3075
 10
420.9765
 20
276.189
 10
420.615
 20
275.99625
 10
420.2985
 20
275.73675
 10
420.039
 20
275.42025
 10
419.84625
 20
275.05875
 10
419.74725
 20
274.73175
 10
419.72775
 20
274.6665
 10
419.69025
 20
274.28625
 10
419.68725
 20
274.2585
 10
419.6895
 20
274.23375
 10
419.727
 20
273.8505
 10
419.84625
 20
273.459
 10
420.039
 20
273.0975
 10
420.2985
 20
272.781
 10
420.615
 20
272.5215
 10
420.97575
 20
272.32875
 10
421.2915
 20
272.23275
 10
421.368
 20
272.2095
 10
421.77525
 20
272.169
 10
422.1825
 20
272.2095
 10
422.24925
 20
272.22975
 10
422.574
 20
272.328
 10
422.93475
 20
272.52075
 10
423.25125
 20
272.78025
 10
423.51075
 20
273.09675
 10
423.7035
 20
273.4575
 10
423.822
 20
273.849
 10
423.8595
 20
274.23225
 10
423.8595
 20
274.23225
 10
423.8595
 20
274.23225
 10
423.86175
 20
274.257
 10
423.82125
 20
274.66425
 10
423.735
 20
274.9485
 10
423.70275
 20
275.05575
 10
423.51
 20
275.41725
  0
LWPOLYLINE
  5
5F
100
AcDbEntity
  8
profiling
  6
ByLayer
 62
  256
370
   -1
100
AcDbPolyline
 90
   33
 70
    1
 43
0
 10
420.2985
 20
238.83825
 10
420.615
 20
238.57875
 10
420.97575
 20
238.386
 10
421.368
 20
238.2675
 10
421.77525
 20
238.227
 10
422.1825
 20
238.2675
 10
422.574
 20
238.386
 10
422.9355
 20
238.57875
 10
423.252
 20
238.83825
 10
423.5115
 20
239.15475
 10
423.70425
 20
239.5155
 10
423.82275
 20
239.907
 10
423.86325
 20
240.31425
 10
423.82275
 20
240.7215
 10
423.70425
 20
241.113
 10
423.5115
 20
241.4745
 10
423.252
 20
241.791
 10
422.9355
 20
242.0505
 10
422.574
 20
242.24325
 10
422.1825
 20
242.36175
 10
421.77525
 20
242.40225
 10
421.368
 20
242.36175
 10
420.97575
 20
242.24325
 10
420.61425
 20
242.0505
 10
420.29775
 20
241.791
 10
420.03825
 20
241.4745
 10
419.8455
 20
241.113
 10
419.72625
 20
240.7215
 10
419.6865
 20
240.31425
 10
419.72625
 20
239.907
 10
419.8455
 20
239.5155
 10
420.03825
 20
239.154
 10
420.29775
 20
238.8375
  0
ENDSEC
  0
SECTION
  2
OBJECTS
  0
DICTIONARY
  5
C
330
0
100
AcDbDictionary
281
    1
  3
ACAD_GROUP
350
D
  0
DICTIONARY
  5
D
330
C
100
AcDbDictionary
281
    1
  0
ENDSEC
  0
EOF
