999
dxfrw 0.6.3
  0
SECTION
  2
HEADER
  9
$ACADVER
  1
AC1021
  9
$DWGCODEPAGE
  3
ANSI_1252
  9
$INSBASE
 10
0
 20
0
 30
0
  9
$EXTMIN
 10
413.94375
 20
131.27175
 30
0
  9
$EXTMAX
 10
626.28225
 20
214.77975
 30
0
  9
$LIMMIN
 10
0
 20
0
  9
$LIMMAX
 10
420
 20
297
  9
$ORTHOMODE
 70
    0
  9
$REGENMODE
 70
    1
  9
$FILLMODE
 70
    1
  9
$QTEXTMODE
 70
    0
  9
$MIRRTEXT
 70
    0
  9
$LTSCALE
 40
1
  9
$ATTMODE
 70
    0
  9
$TEXTSIZE
 40
2.5
  9
$TRACEWID
 40
15.68
  9
$TEXTSTYLE
  7
STANDARD
  9
$CLAYER
  8
pocket-0.5mm
  9
$CELTYPE
  6
BYLAYER
  9
$CECOLOR
 62
  256
  9
$CELTSCALE
 40
1
  9
$DISPSILH
 70
    0
  9
$DIMSCALE
 40
2.5
  9
$DIMASZ
 40
2.5
  9
$DIMEXO
 40
0.625
  9
$DIMDLI
 40
3.75
  9
$DIMRND
 40
0
  9
$DIMDLE
 40
0
  9
$DIMEXE
 40
1.25
  9
$DIMTP
 40
0
  9
$DIMTM
 40
0
  9
$DIMTXT
 40
2.5
  9
$DIMCEN
 40
2.5
  9
$DIMTSZ
 40
0
  9
$DIMTOL
 70
    0
  9
$DIMLIM
 70
    0
  9
$DIMTIH
 70
    0
  9
$DIMTOH
 70
    0
  9
$DIMSE1
 70
    0
  9
$DIMSE2
 70
    0
  9
$DIMTAD
 70
    1
  9
$DIMZIN
 70
    8
  9
$DIMBLK
  1

  9
$DIMASO
 70
    1
  9
$DIMSHO
 70
    1
  9
$DIMPOST
  1

  9
$DIMAPOST
  1

  9
$DIMALT
 70
    0
  9
$DIMALTD
 70
    3
  9
$DIMALTF
 40
0.03937
  9
$DIMLFAC
 40
1
  9
$DIMTOFL
 70
    1
  9
$DIMTVP
 40
0
  9
$DIMTIX
 70
    0
  9
$DIMSOXD
 70
    0
  9
$DIMSAH
 70
    0
  9
$DIMBLK1
  1

  9
$DIMBLK2
  1

  9
$DIMSTYLE
  2
Standard
  9
$DIMCLRD
 70
    0
  9
$DIMCLRE
 70
    0
  9
$DIMCLRT
 70
    0
  9
$DIMTFAC
 40
1
  9
$DIMGAP
 40
0.625
  9
$DIMJUST
 70
    0
  9
$DIMSD1
 70
    0
  9
$DIMSD2
 70
    0
  9
$DIMTOLJ
 70
    0
  9
$DIMTZIN
 70
    8
  9
$DIMALTZ
 70
    0
  9
$DIMALTTZ
 70
    0
  9
$DIMUPT
 70
    0
  9
$DIMDEC
 70
    2
  9
$DIMTDEC
 70
    2
  9
$DIMALTU
 70
    2
  9
$DIMALTTD
 70
    3
  9
$DIMTXSTY
  7
STANDARD
  9
$DIMAUNIT
 70
    0
  9
$DIMADEC
 70
    0
  9
$DIMALTRND
 40
0
  9
$DIMAZIN
 70
    0
  9
$DIMDSEP
 70
   44
  9
$DIMATFIT
 70
    3
  9
$DIMFRAC
 70
    0
  9
$DIMLDRBLK
  1
STANDARD
  9
$DIMLUNIT
 70
    2
  9
$DIMLWD
 70
   -2
  9
$DIMLWE
 70
   -2
  9
$DIMTMOVE
 70
    0
  9
$DIMFXL
 40
1
  9
$DIMFXLON
 70
    0
  9
$DIMJOGANG
 40
0.7854
  9
$DIMTFILL
 70
    0
  9
$DIMTFILLCLR
 70
    0
  9
$DIMARCSYM
 70
    0
  9
$DIMLTYPE
  6

  9
$DIMLTEX1
  6

  9
$DIMLTEX2
  6

  9
$LUNITS
 70
    2
  9
$LUPREC
 70
    4
  9
$SKETCHINC
 40
1
  9
$FILLETRAD
 40
0
  9
$AUNITS
 70
    0
  9
$AUPREC
 70
    2
  9
$MENU
  1
.
  9
$ELEVATION
 40
0
  9
$PELEVATION
 40
0
  9
$THICKNESS
 40
0
  9
$LIMCHECK
 70
    0
  9
$CHAMFERA
 40
0
  9
$CHAMFERB
 40
0
  9
$CHAMFERC
 40
0
  9
$CHAMFERD
 40
0
  9
$SKPOLY
 70
    0
  9
$USRTIMER
 70
    1
  9
$ANGBASE
 50
0
  9
$ANGDIR
 70
    0
  9
$PDMODE
 70
   34
  9
$PDSIZE
 40
0
  9
$PLINEWID
 40
0
  9
$SPLFRAME
 70
    0
  9
$SPLINETYPE
 70
    2
  9
$SPLINESEGS
 70
    8
  9
$HANDSEED
  5
20000
  9
$SURFTAB1
 70
    6
  9
$SURFTAB2
 70
    6
  9
$SURFTYPE
 70
    6
  9
$SURFU
 70
    6
  9
$SURFV
 70
    6
  9
$UCSBASE
  2

  9
$UCSNAME
  2

  9
$UCSORG
 10
0
 20
0
 30
0
  9
$UCSXDIR
 10
1
 20
0
 30
0
  9
$UCSYDIR
 10
0
 20
1
 30
0
  9
$UCSORTHOREF
  2

  9
$UCSORTHOVIEW
 70
    0
  9
$UCSORGTOP
 10
0
 20
0
 30
0
  9
$UCSORGBOTTOM
 10
0
 20
0
 30
0
  9
$UCSORGLEFT
 10
0
 20
0
 30
0
  9
$UCSORGRIGHT
 10
0
 20
0
 30
0
  9
$UCSORGFRONT
 10
0
 20
0
 30
0
  9
$UCSORGBACK
 10
0
 20
0
 30
0
  9
$PUCSBASE
  2

  9
$PUCSNAME
  2

  9
$PUCSORG
 10
0
 20
0
 30
0
  9
$PUCSXDIR
 10
1
 20
0
 30
0
  9
$PUCSYDIR
 10
0
 20
1
 30
0
  9
$PUCSORTHOREF
  2

  9
$PUCSORTHOVIEW
 70
    0
  9
$PUCSORGTOP
 10
0
 20
0
 30
0
  9
$PUCSORGBOTTOM
 10
0
 20
0
 30
0
  9
$PUCSORGLEFT
 10
0
 20
0
 30
0
  9
$PUCSORGRIGHT
 10
0
 20
0
 30
0
  9
$PUCSORGFRONT
 10
0
 20
0
 30
0
  9
$PUCSORGBACK
 10
0
 20
0
 30
0
  9
$USERI1
 70
    0
  9
$USERI2
 70
    0
  9
$USERI3
 70
    0
  9
$USERI4
 70
    0
  9
$USERI5
 70
    0
  9
$USERR1
 40
0
  9
$USERR2
 40
0
  9
$USERR3
 40
0
  9
$USERR4
 40
0
  9
$USERR5
 40
0
  9
$WORLDVIEW
 70
    1
  9
$SHADEDGE
 70
    3
  9
$SHADEDIF
 70
   70
  9
$TILEMODE
 70
    1
  9
$MAXACTVP
 70
   64
  9
$PINSBASE
 10
0
 20
0
 30
0
  9
$PLIMCHECK
 70
    0
  9
$PEXTMIN
 10
0
 20
0
 30
0
  9
$PEXTMAX
 10
0
 20
0
 30
0
  9
$GRIDMODE
 70
    0
  9
$SNAPSTYLE
 70
    0
  9
$PLIMMIN
 10
0
 20
0
  9
$PLIMMAX
 10
210
 20
297
  9
$UNITMODE
 70
    0
  9
$VISRETAIN
 70
    1
  9
$PLINEGEN
 70
    0
  9
$PSLTSCALE
 70
    1
  9
$TREEDEPTH
 70
 3020
  9
$CMLSTYLE
  2
Standard
  9
$CMLJUST
 70
    0
  9
$CMLSCALE
 40
20
  9
$PROXYGRAPHICS
 70
    1
  9
$MEASUREMENT
 70
    1
  9
$CELWEIGHT
370
   -1
  9
$ENDCAPS
280
    0
  9
$JOINSTYLE
280
    0
  9
$LWDISPLAY
290
    0
  9
$INSUNITS
 70
    4
  9
$HYPERLINKBASE
  1

  9
$STYLESHEET
  1

  9
$XEDIT
290
    1
  9
$CEPSNTYPE
380
    0
  9
$PSTYLEMODE
290
    1
  9
$EXTNAMES
290
    1
  9
$PSVPSCALE
 40
1
  9
$OLESTARTUP
290
    0
  9
$SORTENTS
280
  127
  9
$INDEXCTL
280
    0
  9
$HIDETEXT
280
    1
  9
$XCLIPFRAME
290
    0
  9
$HALOGAP
280
    0
  9
$OBSCOLOR
 70
  257
  9
$OBSLTYPE
280
    0
  9
$INTERSECTIONDISPLAY
280
    0
  9
$INTERSECTIONCOLOR
 70
  257
  9
$DIMASSOC
280
    1
  9
$PROJECTNAME
  1

  9
$CAMERADISPLAY
290
    0
  9
$LENSLENGTH
 40
50
  9
$CAMERAHEIGHT
 40
0
  9
$STEPSPERSEC
 40
2
  9
$STEPSIZE
 40
50
  9
$3DDWFPREC
 40
2
  9
$PSOLWIDTH
 40
5
  9
$PSOLHEIGHT
 40
80
  9
$LOFTANG1
 40
1.570796326794897
  9
$LOFTANG2
 40
1.570796326794897
  9
$LOFTMAG1
 40
0
  9
$LOFTMAG2
 40
0
  9
$LOFTPARAM
 70
    7
  9
$LOFTNORMALS
280
    1
  9
$LATITUDE
 40
1
  9
$LONGITUDE
 40
1
  9
$NORTHDIRECTION
 40
0
  9
$TIMEZONE
 70
-8000
  9
$LIGHTGLYPHDISPLAY
280
    1
  9
$TILEMODELIGHTSYNCH
280
    1
  9
$SOLIDHIST
280
    1
  9
$SHOWHIST
280
    1
  9
$DWFFRAME
280
    2
  9
$DGNFRAME
280
    0
  9
$REALWORLDSCALE
290
    1
  9
$INTERFERECOLOR
 62
    1
  9
$CSHADOW
280
    0
  9
$SHADOWPLANELOCATION
 40
0
  0
ENDSEC
  0
SECTION
  2
CLASSES
  0
ENDSEC
  0
SECTION
  2
TABLES
  0
TABLE
  2
VPORT
  5
8
330
0
100
AcDbSymbolTable
 70
    1
  0
VPORT
  5
31
330
2
100
AcDbSymbolTableRecord
100
AcDbViewportTableRecord
  2
*ACTIVE
 70
    0
 10
0
 20
0
 11
1
 21
1
 12
330.6271975653761
 22
110.2090658551254
 13
0
 23
0
 14
10
 24
10
 15
10
 25
10
 16
0
 26
0
 36
1
 17
0
 27
0
 37
0
 40
282.6136355416703
 41
0.9866989117291415
 42
50
 43
0
 44
0
 50
0
 51
0
 71
    0
 72
  100
 73
    1
 74
    3
 75
    0
 76
    0
 77
    0
 78
    0
281
    0
 65
    1
110
0
120
0
130
0
111
1
121
0
131
0
112
0
122
1
132
0
 79
    0
146
0
348
10020
 60
    7
 61
    5
292
1
282
    1
141
0
142
0
 63
  250
421
3358443
  0
ENDTAB
  0
TABLE
  2
LTYPE
  5
5
330
0
100
AcDbSymbolTable
 70
    4
  0
LTYPE
  5
14
330
5
100
AcDbSymbolTableRecord
100
AcDbLinetypeTableRecord
  2
ByBlock
 70
    0
  3

 72
   65
 73
    0
 40
0
  0
LTYPE
  5
15
330
5
100
AcDbSymbolTableRecord
100
AcDbLinetypeTableRecord
  2
ByLayer
 70
    0
  3

 72
   65
 73
    0
 40
0
  0
LTYPE
  5
16
330
5
100
AcDbSymbolTableRecord
100
AcDbLinetypeTableRecord
  2
Continuous
 70
    0
  3
Solid line
 72
   65
 73
    0
 40
0
  0
LTYPE
  5
32
330
5
100
AcDbSymbolTableRecord
100
AcDbLinetypeTableRecord
  2
DOT
 70
    0
  3
Dot . . . . . . . . . . . . . . . . . . . . . .
 72
   65
 73
    2
 40
6.35
 49
0
 74
    0
 49
-6.35
 74
    0
  0
LTYPE
  5
33
330
5
100
AcDbSymbolTableRecord
100
AcDbLinetypeTableRecord
  2
DOTTINY
 70
    0
  3
Dot (.15x) .....................................
 72
   65
 73
    2
 40
0.9525
 49
0
 74
    0
 49
-0.9525
 74
    0
  0
LTYPE
  5
34
330
5
100
AcDbSymbolTableRecord
100
AcDbLinetypeTableRecord
  2
DOT2
 70
    0
  3
Dot (.5x) .....................................
 72
   65
 73
    2
 40
3.175
 49
0
 74
    0
 49
-3.175
 74
    0
  0
LTYPE
  5
35
330
5
100
AcDbSymbolTableRecord
100
AcDbLinetypeTableRecord
  2
DOTX2
 70
    0
  3
Dot (2x) .  .  .  .  .  .  .  .  .  .  .  .  .
 72
   65
 73
    2
 40
12.7
 49
0
 74
    0
 49
-12.7
 74
    0
  0
LTYPE
  5
36
330
5
100
AcDbSymbolTableRecord
100
AcDbLinetypeTableRecord
  2
DASHED
 70
    0
  3
Dashed _ _ _ _ _ _ _ _ _ _ _ _ _ _ _ _ _
 72
   65
 73
    2
 40
19.05
 49
12.7
 74
    0
 49
-6.35
 74
    0
  0
LTYPE
  5
37
330
5
100
AcDbSymbolTableRecord
100
AcDbLinetypeTableRecord
  2
DASHEDTINY
 70
    0
  3
Dashed (.15x) _ _ _ _ _ _ _ _ _ _ _ _ _ _ _ _ _
 72
   65
 73
    2
 40
2.8575
 49
1.905
 74
    0
 49
-0.9525
 74
    0
  0
LTYPE
  5
38
330
5
100
AcDbSymbolTableRecord
100
AcDbLinetypeTableRecord
  2
DASHED2
 70
    0
  3
Dashed (.5x) _ _ _ _ _ _ _ _ _ _ _ _ _ _ _ _ _
 72
   65
 73
    2
 40
9.524999999999999
 49
6.35
 74
    0
 49
-3.175
 74
    0
  0
LTYPE
  5
39
330
5
100
AcDbSymbolTableRecord
100
AcDbLinetypeTableRecord
  2
DASHEDX2
 70
    0
  3
Dashed (2x) ____  ____  ____  ____  ____  ___
 72
   65
 73
    2
 40
38.09999999999999
 49
25.4
 74
    0
 49
-12.7
 74
    0
  0
LTYPE
  5
3A
330
5
100
AcDbSymbolTableRecord
100
AcDbLinetypeTableRecord
  2
DASHDOT
 70
    0
  3
Dash dot __ . __ . __ . __ . __ . __ . __ . __
 72
   65
 73
    4
 40
25.4
 49
12.7
 74
    0
 49
-6.35
 74
    0
 49
0
 74
    0
 49
-6.35
 74
    0
  0
LTYPE
  5
3B
330
5
100
AcDbSymbolTableRecord
100
AcDbLinetypeTableRecord
  2
DASHDOTTINY
 70
    0
  3
Dash dot (.15x) _._._._._._._._._._._._._._._.
 72
   65
 73
    4
 40
3.81
 49
1.905
 74
    0
 49
-0.9525
 74
    0
 49
0
 74
    0
 49
-0.9525
 74
    0
  0
LTYPE
  5
3C
330
5
100
AcDbSymbolTableRecord
100
AcDbLinetypeTableRecord
  2
DASHDOT2
 70
    0
  3
Dash dot (.5x) _._._._._._._._._._._._._._._.
 72
   65
 73
    4
 40
12.7
 49
6.35
 74
    0
 49
-3.175
 74
    0
 49
0
 74
    0
 49
-3.175
 74
    0
  0
LTYPE
  5
3D
330
5
100
AcDbSymbolTableRecord
100
AcDbLinetypeTableRecord
  2
DASHDOTX2
 70
    0
  3
Dash dot (2x) ____  .  ____  .  ____  .  ___
 72
   65
 73
    4
 40
50.8
 49
25.4
 74
    0
 49
-12.7
 74
    0
 49
0
 74
    0
 49
-12.7
 74
    0
  0
LTYPE
  5
3E
330
5
100
AcDbSymbolTableRecord
100
AcDbLinetypeTableRecord
  2
DIVIDE
 70
    0
  3
Divide ____ . . ____ . . ____ . . ____ . . ____
 72
   65
 73
    6
 40
31.75
 49
12.7
 74
    0
 49
-6.35
 74
    0
 49
0
 74
    0
 49
-6.35
 74
    0
 49
0
 74
    0
 49
-6.35
 74
    0
  0
LTYPE
  5
3F
330
5
100
AcDbSymbolTableRecord
100
AcDbLinetypeTableRecord
  2
DIVIDETINY
 70
    0
  3
Divide (.15x) __..__..__..__..__..__..__..__.._
 72
   65
 73
    6
 40
4.7625
 49
1.905
 74
    0
 49
-0.9525
 74
    0
 49
0
 74
    0
 49
-0.9525
 74
    0
 49
0
 74
    0
 49
-0.9525
 74
    0
  0
LTYPE
  5
40
330
5
100
AcDbSymbolTableRecord
100
AcDbLinetypeTableRecord
  2
DIVIDE2
 70
    0
  3
Divide (.5x) __..__..__..__..__..__..__..__.._
 72
   65
 73
    6
 40
15.875
 49
6.35
 74
    0
 49
-3.175
 74
    0
 49
0
 74
    0
 49
-3.175
 74
    0
 49
0
 74
    0
 49
-3.175
 74
    0
  0
LTYPE
  5
41
330
5
100
AcDbSymbolTableRecord
100
AcDbLinetypeTableRecord
  2
DIVIDEX2
 70
    0
  3
Divide (2x) ________  .  .  ________  .  .  _
 72
   65
 73
    6
 40
63.5
 49
25.4
 74
    0
 49
-12.7
 74
    0
 49
0
 74
    0
 49
-12.7
 74
    0
 49
0
 74
    0
 49
-12.7
 74
    0
  0
LTYPE
  5
42
330
5
100
AcDbSymbolTableRecord
100
AcDbLinetypeTableRecord
  2
BORDER
 70
    0
  3
Border __ __ . __ __ . __ __ . __ __ . __ __ .
 72
   65
 73
    6
 40
44.45
 49
12.7
 74
    0
 49
-6.35
 74
    0
 49
12.7
 74
    0
 49
-6.35
 74
    0
 49
0
 74
    0
 49
-6.35
 74
    0
  0
LTYPE
  5
43
330
5
100
AcDbSymbolTableRecord
100
AcDbLinetypeTableRecord
  2
BORDERTINY
 70
    0
  3
Border (.15x) __.__.__.__.__.__.__.__.__.__.__.
 72
   65
 73
    6
 40
6.6675
 49
1.905
 74
    0
 49
-0.9525
 74
    0
 49
1.905
 74
    0
 49
-0.9525
 74
    0
 49
0
 74
    0
 49
-0.9525
 74
    0
  0
LTYPE
  5
44
330
5
100
AcDbSymbolTableRecord
100
AcDbLinetypeTableRecord
  2
BORDER2
 70
    0
  3
Border (.5x) __.__.__.__.__.__.__.__.__.__.__.
 72
   65
 73
    6
 40
22.225
 49
6.35
 74
    0
 49
-3.175
 74
    0
 49
6.35
 74
    0
 49
-3.175
 74
    0
 49
0
 74
    0
 49
-3.175
 74
    0
  0
LTYPE
  5
45
330
5
100
AcDbSymbolTableRecord
100
AcDbLinetypeTableRecord
  2
BORDERX2
 70
    0
  3
Border (2x) ____  ____  .  ____  ____  .  ___
 72
   65
 73
    6
 40
88.89999999999999
 49
25.4
 74
    0
 49
-12.7
 74
    0
 49
25.4
 74
    0
 49
-12.7
 74
    0
 49
0
 74
    0
 49
-12.7
 74
    0
  0
LTYPE
  5
46
330
5
100
AcDbSymbolTableRecord
100
AcDbLinetypeTableRecord
  2
CENTER
 70
    0
  3
Center ____ _ ____ _ ____ _ ____ _ ____ _ ____
 72
   65
 73
    4
 40
50.8
 49
31.75
 74
    0
 49
-6.35
 74
    0
 49
6.35
 74
    0
 49
-6.35
 74
    0
  0
LTYPE
  5
47
330
5
100
AcDbSymbolTableRecord
100
AcDbLinetypeTableRecord
  2
CENTERTINY
 70
    0
  3
Center (.15x) ___ _ ___ _ ___ _ ___ _ ___ _ ___
 72
   65
 73
    4
 40
7.619999999999999
 49
4.7625
 74
    0
 49
-0.9525
 74
    0
 49
0.9525
 74
    0
 49
-0.9525
 74
    0
  0
LTYPE
  5
48
330
5
100
AcDbSymbolTableRecord
100
AcDbLinetypeTableRecord
  2
CENTER2
 70
    0
  3
Center (.5x) ___ _ ___ _ ___ _ ___ _ ___ _ ___
 72
   65
 73
    4
 40
28.575
 49
19.05
 74
    0
 49
-3.175
 74
    0
 49
3.175
 74
    0
 49
-3.175
 74
    0
  0
LTYPE
  5
49
330
5
100
AcDbSymbolTableRecord
100
AcDbLinetypeTableRecord
  2
CENTERX2
 70
    0
  3
Center (2x) ________  __  ________  __  _____
 72
   65
 73
    4
 40
101.6
 49
63.5
 74
    0
 49
-12.7
 74
    0
 49
12.7
 74
    0
 49
-12.7
 74
    0
  0
ENDTAB
  0
TABLE
  2
LAYER
  5
2
330
0
100
AcDbSymbolTable
 70
    1
  0
LAYER
  5
10
330
2
100
AcDbSymbolTableRecord
100
AcDbLayerTableRecord
  2
0
 70
    0
 62
    7
  6
CONTINUOUS
370
   -3
390
F
  0
LAYER
  5
4A
330
2
100
AcDbSymbolTableRecord
100
AcDbLayerTableRecord
  2
pocket-0.5mm
 70
    0
 62
    4
  6
CONTINUOUS
370
    0
390
F
  0
LAYER
  5
4B
330
2
100
AcDbSymbolTableRecord
100
AcDbLayerTableRecord
  2
profiling
 70
    0
 62
    3
  6
CONTINUOUS
370
    0
390
F
  0
LAYER
  5
4C
330
2
100
AcDbSymbolTableRecord
100
AcDbLayerTableRecord
  2
vcut
 70
    0
 62
    6
  6
CONTINUOUS
370
    0
390
F
  0
ENDTAB
  0
TABLE
  2
STYLE
  5
3
330
0
100
AcDbSymbolTable
 70
    3
  0
STYLE
  5
4D
330
2
100
AcDbSymbolTableRecord
100
AcDbTextStyleTableRecord
  2
Standard
 70
    0
 40
0
 41
1
 50
0
 71
    0
 42
1
  3
txt
  4

  0
ENDTAB
  0
TABLE
  2
VIEW
  5
6
330
0
100
AcDbSymbolTable
 70
    0
  0
ENDTAB
  0
TABLE
  2
UCS
  5
7
330
0
100
AcDbSymbolTable
 70
    0
  0
ENDTAB
  0
TABLE
  2
APPID
  5
9
330
0
100
AcDbSymbolTable
 70
    1
  0
APPID
  5
12
330
9
100
AcDbSymbolTableRecord
100
AcDbRegAppTableRecord
  2
ACAD
 70
    0
  0
APPID
  5
4E
330
9
100
AcDbSymbolTableRecord
100
AcDbRegAppTableRecord
  2
LibreCad
 70
    0
  0
ENDTAB
  0
TABLE
  2
DIMSTYLE
  5
A
330
0
100
AcDbSymbolTable
 70
    1
100
AcDbDimStyleTable
 71
    1
  0
DIMSTYLE
105
4F
330
A
100
AcDbSymbolTableRecord
100
AcDbDimStyleTableRecord
  2
Standard
 70
    0
 40
2.5
 41
2.5
 42
0.625
 43
0.38
 44
1.25
 45
0
 46
0
 47
0
 48
0
 49
1
140
2.5
141
0.09
142
0
143
25.4
144
1
145
0
146
1
147
0.625
148
0
 71
    0
 72
    0
 73
    0
 74
    1
 75
    0
 76
    0
 77
    0
 78
    8
 79
    0
170
    0
171
    2
172
    0
173
    0
174
    0
175
    0
176
    0
177
    0
178
    0
179
    0
271
    2
272
    4
273
    2
274
    2
275
    0
276
    0
277
    2
278
   44
279
    0
280
    0
281
    0
282
    0
283
    1
284
    0
285
    0
286
    0
288
    0
289
    3
340
STANDARD
341

371
   -2
372
   -2
  0
ENDTAB
  0
TABLE
  2
BLOCK_RECORD
  5
1
330
0
100
AcDbSymbolTable
 70
    2
  0
BLOCK_RECORD
  5
1F
330
1
100
AcDbSymbolTableRecord
100
AcDbBlockTableRecord
  2
*Model_Space
 70
    0
280
    1
281
    0
  0
BLOCK_RECORD
  5
1E
330
1
100
AcDbSymbolTableRecord
100
AcDbBlockTableRecord
  2
*Paper_Space
 70
    0
280
    1
281
    0
  0
ENDTAB
  0
ENDSEC
  0
SECTION
  2
BLOCKS
  0
BLOCK
  5
20
330
1F
100
AcDbEntity
  8
0
100
AcDbBlockBegin
  2
*Model_Space
 70
    0
 10
0
 20
0
 30
0
  3
*Model_Space
  1

  0
ENDBLK
  5
21
330
1F
100
AcDbEntity
  8
0
100
AcDbBlockEnd
  0
BLOCK
  5
1C
330
1B
100
AcDbEntity
  8
0
100
AcDbBlockBegin
  2
*Paper_Space
 70
    0
 10
0
 20
0
 30
0
  3
*Paper_Space
  1

  0
ENDBLK
  5
1D
330
1F
100
AcDbEntity
  8
0
100
AcDbBlockEnd
  0
ENDSEC
  0
SECTION
  2
ENTITIES
  0
LWPOLYLINE
  5
50
100
AcDbEntity
  8
pocket-0.5mm
  6
ByLayer
 62
  256
370
   -1
100
AcDbPolyline
 90
   32
 70
    1
 43
0
 10
596.3265
 20
152.9775
 10
595.64025
 20
152.769
 10
595.00725
 20
152.43075
 10
594.453
 20
151.9755
 10
593.99775
 20
151.42125
 10
593.6595
 20
150.78825
 10
593.451
 20
150.102
 10
593.3805
 20
149.388
 10
593.451
 20
148.674
 10
593.6595
 20
147.98775
 10
593.99775
 20
147.35475
 10
594.453
 20
146.8005
 10
595.00725
 20
146.34525
 10
595.64025
 20
146.007
 10
596.3265
 20
145.7985
 10
597.0405
 20
145.728
 10
597.7545
 20
145.7985
 10
598.44075
 20
146.007
 10
599.07375
 20
146.34525
 10
599.628
 20
146.8005
 10
600.08325
 20
147.35475
 10
600.4215
 20
147.98775
 10
600.63
 20
148.674
 10
600.7005
 20
149.388
 10
600.63
 20
150.102
 10
600.4215
 20
150.78825
 10
600.08325
 20
151.42125
 10
599.628
 20
151.9755
 10
599.07375
 20
152.43075
 10
598.44075
 20
152.769
 10
597.7545
 20
152.9775
 10
597.0405
 20
153.048
  0
LWPOLYLINE
  5
51
100
AcDbEntity
  8
pocket-0.5mm
  6
ByLayer
 62
  256
370
   -1
100
AcDbPolyline
 90
   32
 70
    1
 43
0
 10
596.3265
 20
200.181
 10
595.64025
 20
199.9725
 10
595.00725
 20
199.63425
 10
594.453
 20
199.179
 10
593.99775
 20
198.62475
 10
593.6595
 20
197.99175
 10
593.451
 20
197.3055
 10
593.3805
 20
196.5915
 10
593.451
 20
195.8775
 10
593.6595
 20
195.19125
 10
593.99775
 20
194.55825
 10
594.453
 20
194.004
 10
595.00725
 20
193.54875
 10
595.64025
 20
193.2105
 10
596.3265
 20
193.002
 10
597.0405
 20
192.9315
 10
597.7545
 20
193.002
 10
598.44075
 20
193.2105
 10
599.07375
 20
193.54875
 10
599.628
 20
194.004
 10
600.08325
 20
194.55825
 10
600.4215
 20
195.19125
 10
600.63
 20
195.8775
 10
600.7005
 20
196.5915
 10
600.63
 20
197.3055
 10
600.4215
 20
197.99175
 10
600.08325
 20
198.62475
 10
599.628
 20
199.179
 10
599.07375
 20
199.63425
 10
598.44075
 20
199.9725
 10
597.7545
 20
200.181
 10
597.0405
 20
200.2515
  0
LWPOLYLINE
  5
52
100
AcDbEntity
  8
profiling
  6
ByLayer
 62
  256
370
   -1
100
AcDbPolyline
 90
  293
 70
    1
 43
0
 10
600.51
 20
134.45625
 10
598.59825
 20
133.719
 10
598.59825
 20
133.719
 10
596.65275
 20
133.07625
 10
596.65275
 20
133.07625
 10
596.65275
 20
133.07625
 10
596.65275
 20
133.07625
 10
594.678
 20
132.5295
 10
594.678
 20
132.5295
 10
592.6785
 20
132.08025
 10
592.6785
 20
132.08025
 10
592.6785
 20
132.08025
 10
592.6785
 20
132.08025
 10
590.6595
 20
131.73
 10
590.6595
 20
131.73
 10
588.62625
 20
131.4795
 10
588.62625
 20
131.4795
 10
588.62625
 20
131.4795
 10
588.62625
 20
131.4795
 10
586.5825
 20
131.32875
 10
586.5825
 20
131.32875
 10
570.32025
 20
131.27175
 10
570.32025
 20
131.27175
 10
570.32025
 20
131.27175
 10
570.32025
 20
131.27175
 10
429.6105
 20
131.27175
 10
429.6105
 20
131.27175
 10
429.6105
 20
131.27175
 10
420.47175
 20
131.27175
 10
420.47175
 20
131.27175
 10
419.832
 20
131.30325
 10
419.832
 20
131.30325
 10
419.832
 20
131.30325
 10
419.19825
 20
131.397
 10
419.19825
 20
131.397
 10
418.57725
 20
131.553
 10
418.57725
 20
131.553
 10
417.97425
 20
131.769
 10
417.97425
 20
131.769
 10
417.39525
 20
132.04275
 10
417.39525
 20
132.04275
 10
416.8455
 20
132.372
 10
416.8455
 20
132.372
 10
416.331
 20
132.75375
 10
416.331
 20
132.75375
 10
415.85625
 20
133.18425
 10
415.85625
 20
133.18425
 10
415.42575
 20
133.659
 10
415.42575
 20
133.659
 10
415.044
 20
134.1735
 10
415.044
 20
134.1735
 10
414.71475
 20
134.72325
 10
414.71475
 20
134.72325
 10
414.441
 20
135.30225
 10
414.441
 20
135.30225
 10
414.225
 20
135.90525
 10
414.225
 20
135.90525
 10
414.069
 20
136.527
 10
414.069
 20
136.527
 10
413.97525
 20
137.16075
 10
413.97525
 20
137.16075
 10
413.94375
 20
137.8005
 10
413.94375
 20
137.8005
 10
413.94375
 20
137.8005
 10
413.94375
 20
173.02575
 10
413.94375
 20
208.251
 10
413.94375
 20
208.251
 10
413.94375
 20
208.251
 10
413.94375
 20
208.251
 10
413.94375
 20
208.251
 10
413.94375
 20
208.251
 10
413.97525
 20
208.89075
 10
413.97525
 20
208.89075
 10
413.97525
 20
208.89075
 10
414.069
 20
209.5245
 10
414.069
 20
209.5245
 10
414.069
 20
209.5245
 10
414.225
 20
210.14625
 10
414.225
 20
210.14625
 10
414.225
 20
210.14625
 10
414.225
 20
210.14625
 10
414.441
 20
210.74925
 10
414.441
 20
210.74925
 10
414.441
 20
210.74925
 10
414.441
 20
210.74925
 10
414.71475
 20
211.32825
 10
414.71475
 20
211.32825
 10
414.71475
 20
211.32825
 10
414.71475
 20
211.32825
 10
414.71475
 20
211.32825
 10
414.71475
 20
211.32825
 10
415.044
 20
211.878
 10
415.044
 20
211.878
 10
415.42575
 20
212.3925
 10
415.42575
 20
212.3925
 10
415.42575
 20
212.3925
 10
415.42575
 20
212.3925
 10
415.42575
 20
212.3925
 10
415.85625
 20
212.86725
 10
415.85625
 20
212.86725
 10
415.85625
 20
212.86725
 10
415.85625
 20
212.86725
 10
415.85625
 20
212.86725
 10
415.85625
 20
212.86725
 10
415.85625
 20
212.86725
 10
415.85625
 20
212.86725
 10
416.331
 20
213.29775
 10
416.331
 20
213.29775
 10
416.331
 20
213.29775
 10
416.8455
 20
213.6795
 10
416.8455
 20
213.6795
 10
417.39525
 20
214.00875
 10
417.39525
 20
214.00875
 10
417.39525
 20
214.00875
 10
417.39525
 20
214.00875
 10
417.97425
 20
214.2825
 10
417.97425
 20
214.2825
 10
418.57725
 20
214.4985
 10
418.57725
 20
214.4985
 10
418.57725
 20
214.4985
 10
418.57725
 20
214.4985
 10
419.199
 20
214.6545
 10
419.199
 20
214.6545
 10
419.83275
 20
214.74825
 10
419.83275
 20
214.74825
 10
419.83275
 20
214.74825
 10
419.83275
 20
214.74825
 10
420.4725
 20
214.77975
 10
420.4725
 20
214.77975
 10
429.61125
 20
214.77975
 10
570.321
 20
214.77975
 10
570.321
 20
214.77975
 10
570.321
 20
214.77975
 10
570.321
 20
214.77975
 10
586.58325
 20
214.72275
 10
586.58325
 20
214.72275
 10
588.627
 20
214.572
 10
588.627
 20
214.572
 10
588.627
 20
214.572
 10
590.66025
 20
214.3215
 10
590.66025
 20
214.3215
 10
592.67925
 20
213.97125
 10
592.67925
 20
213.97125
 10
594.67875
 20
213.522
 10
594.67875
 20
213.522
 10
596.6535
 20
212.97525
 10
596.6535
 20
212.97525
 10
598.599
 20
212.3325
 10
598.599
 20
212.3325
 10
600.51075
 20
211.59525
 10
600.51075
 20
211.59525
 10
602.38425
 20
210.765
 10
602.38425
 20
210.765
 10
604.21425
 20
209.844
 10
604.21425
 20
209.844
 10
605.997
 20
208.83375
 10
605.997
 20
208.83375
 10
607.728
 20
207.73725
 10
607.728
 20
207.73725
 10
609.4035
 20
206.5575
 10
609.4035
 20
206.5575
 10
611.019
 20
205.29675
 10
611.019
 20
205.29675
 10
612.57075
 20
203.95875
 10
612.57075
 20
203.95875
 10
614.0549999999999
 20
202.54575
 10
614.0549999999999
 20
202.54575
 10
615.468
 20
201.0615
 10
615.468
 20
201.0615
 10
616.806
 20
199.50975
 10
616.806
 20
199.50975
 10
618.06675
 20
197.89425
 10
618.06675
 20
197.89425
 10
618.06675
 20
197.89425
 10
619.2465
 20
196.21875
 10
619.2465
 20
196.21875
 10
619.2465
 20
196.21875
 10
620.343
 20
194.48775
 10
620.343
 20
194.48775
 10
621.35325
 20
192.705
 10
621.35325
 20
192.705
 10
621.35325
 20
192.705
 10
621.35325
 20
192.705
 10
622.2742500000001
 20
190.875
 10
622.2742500000001
 20
190.875
 10
623.1045
 20
189.0015
 10
623.1045
 20
189.0015
 10
623.1045
 20
189.0015
 10
623.1045
 20
189.0015
 10
623.84175
 20
187.08975
 10
623.84175
 20
187.08975
 10
624.4845
 20
185.14425
 10
624.4845
 20
185.14425
 10
624.4845
 20
185.14425
 10
624.4845
 20
185.14425
 10
625.03125
 20
183.1695
 10
625.03125
 20
183.1695
 10
625.4805
 20
181.17
 10
625.4805
 20
181.17
 10
625.4805
 20
181.17
 10
625.4805
 20
181.17
 10
625.83075
 20
179.151
 10
625.83075
 20
179.151
 10
626.08125
 20
177.11775
 10
626.08125
 20
177.11775
 10
626.08125
 20
177.11775
 10
626.08125
 20
177.11775
 10
626.232
 20
175.074
 10
626.232
 20
175.074
 10
626.28225
 20
173.02575
 10
626.28225
 20
173.02575
 10
626.28225
 20
173.02575
 10
626.28225
 20
173.02575
 10
626.28225
 20
173.02575
 10
626.232
 20
170.9775
 10
626.232
 20
170.9775
 10
626.232
 20
170.9775
 10
626.08125
 20
168.93375
 10
626.08125
 20
168.93375
 10
625.83075
 20
166.9005
 10
625.83075
 20
166.9005
 10
625.83075
 20
166.9005
 10
625.83075
 20
166.9005
 10
625.4805
 20
164.8815
 10
625.4805
 20
164.8815
 10
625.4805
 20
164.8815
 10
625.4805
 20
164.8815
 10
625.4805
 20
164.8815
 10
625.03125
 20
162.882
 10
625.03125
 20
162.882
 10
625.03125
 20
162.882
 10
625.03125
 20
162.882
 10
624.4845
 20
160.90725
 10
624.4845
 20
160.90725
 10
623.84175
 20
158.96175
 10
623.84175
 20
158.96175
 10
623.84175
 20
158.96175
 10
623.84175
 20
158.96175
 10
623.84175
 20
158.96175
 10
623.84175
 20
158.96175
 10
623.84175
 20
158.96175
 10
623.84175
 20
158.96175
 10
623.1045
 20
157.05
 10
623.1045
 20
157.05
 10
622.2742500000001
 20
155.1765
 10
622.2742500000001
 20
155.1765
 10
622.2742500000001
 20
155.1765
 10
622.2742500000001
 20
155.1765
 10
621.35325
 20
153.3465
 10
621.35325
 20
153.3465
 10
620.343
 20
151.56375
 10
620.343
 20
151.56375
 10
620.343
 20
151.56375
 10
620.343
 20
151.56375
 10
619.2465
 20
149.83275
 10
619.2465
 20
149.83275
 10
618.06675
 20
148.15725
 10
618.06675
 20
148.15725
 10
618.06675
 20
148.15725
 10
618.06675
 20
148.15725
 10
616.806
 20
146.54175
 10
616.806
 20
146.54175
 10
616.806
 20
146.54175
 10
615.46725
 20
144.99
 10
615.46725
 20
144.99
 10
614.05425
 20
143.50575
 10
614.05425
 20
143.50575
 10
614.05425
 20
143.50575
 10
614.05425
 20
143.50575
 10
612.5700000000001
 20
142.09275
 10
612.5700000000001
 20
142.09275
 10
611.01825
 20
140.75475
 10
611.01825
 20
140.75475
 10
611.01825
 20
140.75475
 10
611.01825
 20
140.75475
 10
609.40275
 20
139.494
 10
609.40275
 20
139.494
 10
607.72725
 20
138.31425
 10
607.72725
 20
138.31425
 10
607.72725
 20
138.31425
 10
607.72725
 20
138.31425
 10
605.99625
 20
137.21775
 10
605.99625
 20
137.21775
 10
604.2135
 20
136.2075
 10
604.2135
 20
136.2075
 10
604.2135
 20
136.2075
 10
604.2135
 20
136.2075
 10
602.3835
 20
135.2865
 10
602.3835
 20
135.2865
 10
600.51
 20
134.45625
 10
600.51
 20
134.45625
 10
600.51
 20
134.45625
 10
600.51
 20
134.45625
  0
LWPOLYLINE
  5
53
100
AcDbEntity
  8
profiling
  6
ByLayer
 62
  256
370
   -1
100
AcDbPolyline
 90
   81
 70
    1
 43
0
 10
547.66875
 20
142.8585
 10
550.70325
 20
141.423
 10
553.86375
 20
140.292
 10
557.1202500000001
 20
139.476
 10
560.4405
 20
138.98325
 10
563.793
 20
138.81825
 10
567.1455
 20
138.98325
 10
570.32025
 20
139.45425
 10
570.32025
 20
139.45425
 10
570.46575
 20
139.476
 10
573.72225
 20
140.292
 10
574.5359999999999
 20
140.583
 10
576.88275
 20
141.423
 10
578.2905
 20
142.089
 10
579.91725
 20
142.8585
 10
581.9595
 20
144.0825
 10
582.7965
 20
144.58425
 10
585.24
 20
146.39625
 10
585.49275
 20
146.58375
 10
585.759
 20
146.82525
 10
587.97975
 20
148.83825
 10
590.23425
 20
151.32525
 10
592.23375
 20
154.0215
 10
593.1900000000001
 20
155.61675
 10
593.9595
 20
156.90075
 10
595.395
 20
159.93525
 10
596.526
 20
163.09575
 10
596.853
 20
164.4015
 10
597.3412499999999
 20
166.3515
 10
597.8339999999999
 20
169.67175
 10
597.999
 20
173.02425
 10
597.8339999999999
 20
176.37675
 10
597.3412499999999
 20
179.697
 10
596.526
 20
182.9535
 10
595.82175
 20
184.92225
 10
595.395
 20
186.114
 10
593.9595
 20
189.1485
 10
592.23375
 20
192.02775
 10
590.23425
 20
194.724
 10
589.5337500000001
 20
195.4965
 10
587.97975
 20
197.211
 10
585.49275
 20
199.4655
 10
582.7965
 20
201.465
 10
579.91725
 20
203.19075
 10
576.88275
 20
204.62625
 10
573.72225
 20
205.75725
 10
570.46575
 20
206.57325
 10
570.3194999999999
 20
206.595
 10
570.3194999999999
 20
206.595
 10
567.14475
 20
207.066
 10
563.79225
 20
207.231
 10
561.855
 20
207.13575
 10
560.43975
 20
207.066
 10
557.1195
 20
206.57325
 10
553.8630000000001
 20
205.75725
 10
550.7025
 20
204.62625
 10
547.668
 20
203.19075
 10
544.7887500000001
 20
201.465
 10
542.0925
 20
199.4655
 10
539.6055
 20
197.211
 10
537.351
 20
194.724
 10
535.83375
 20
192.678
 10
535.3515
 20
192.02775
 10
533.62575
 20
189.1485
 10
532.19025
 20
186.114
 10
532.19025
 20
186.114
 10
531.05925
 20
182.9535
 10
530.24325
 20
179.697
 10
529.7505
 20
176.37675
 10
529.5855
 20
173.02425
 10
529.7505
 20
169.67175
 10
530.24325
 20
166.3515
 10
531.05925
 20
163.095
 10
532.19025
 20
159.9345
 10
533.62575
 20
156.9
 10
535.3515
 20
154.02075
 10
537.351
 20
151.3245
 10
539.6055
 20
148.8375
 10
542.0925
 20
146.583
 10
544.7887500000001
 20
144.5835
 10
547.668
 20
142.85775
  0
LWPOLYLINE
  5
54
100
AcDbEntity
  8
profiling
  6
ByLayer
 62
  256
370
   -1
100
AcDbPolyline
 90
   35
 70
    1
 43
0
 10
597.0405
 20
147.29925
 10
597.44775
 20
147.33975
 10
597.801
 20
147.447
 10
597.84
 20
147.459
 10
598.2015
 20
147.65175
 10
598.518
 20
147.91125
 10
598.7775
 20
148.22775
 10
598.97025
 20
148.58925
 10
599.08875
 20
148.98075
 10
599.12925
 20
149.388
 10
599.08875
 20
149.79525
 10
598.97025
 20
150.1875
 10
598.7775
 20
150.54825
 10
598.518
 20
150.86475
 10
598.2015
 20
151.12425
 10
597.84
 20
151.317
 10
597.4485
 20
151.4355
 10
597.04125
 20
151.476
 10
596.634
 20
151.4355
 10
596.24175
 20
151.317
 10
595.88025
 20
151.12425
 10
595.56375
 20
150.86475
 10
595.30425
 20
150.54825
 10
595.1115
 20
150.1875
 10
595.0575
 20
150.00825
 10
594.9930000000001
 20
149.79525
 10
594.9525
 20
149.388
 10
594.9930000000001
 20
148.98075
 10
595.1115
 20
148.58925
 10
595.30425
 20
148.22775
 10
595.56375
 20
147.91125
 10
595.88025
 20
147.65175
 10
596.24175
 20
147.459
 10
596.634
 20
147.3405
 10
597.04125
 20
147.3
  0
LWPOLYLINE
  5
55
100
AcDbEntity
  8
profiling
  6
ByLayer
 62
  256
370
   -1
100
AcDbPolyline
 90
   39
 70
    1
 43
0
 10
530.2575000000001
 20
209.20425
 10
529.941
 20
208.94475
 10
529.6815
 20
208.62825
 10
529.48875
 20
208.26675
 10
529.3702500000001
 20
207.87525
 10
529.32975
 20
207.468
 10
529.3702500000001
 20
207.06075
 10
529.48875
 20
206.66925
 10
529.6815
 20
206.30775
 10
529.941
 20
205.99125
 10
530.2575000000001
 20
205.73175
 10
530.5335
 20
205.584
 10
530.619
 20
205.53825
 10
531.0105
 20
205.41975
 10
531.41775
 20
205.37925
 10
531.825
 20
205.41975
 10
532.2165
 20
205.53825
 10
532.578
 20
205.731
 10
532.8945
 20
205.9905
 10
533.154
 20
206.307
 10
533.34675
 20
206.6685
 10
533.46525
 20
207.06
 10
533.50575
 20
207.46725
 10
533.46525
 20
207.8745
 10
533.34675
 20
208.266
 10
533.154
 20
208.6275
 10
533.09475
 20
208.70025
 10
532.8945
 20
208.94475
 10
532.77525
 20
209.04225
 10
532.578
 20
209.20425
 10
532.302
 20
209.352
 10
532.2165
 20
209.39775
 10
531.9997499999999
 20
209.46375
 10
531.82425
 20
209.517
 10
531.60975
 20
209.538
 10
531.41625
 20
209.55675
 10
531.009
 20
209.51625
 10
530.6174999999999
 20
209.39775
 10
530.256
 20
209.205
  0
LWPOLYLINE
  5
56
100
AcDbEntity
  8
profiling
  6
ByLayer
 62
  256
370
   -1
100
AcDbPolyline
 90
   35
 70
    1
 43
0
 10
515.11275
 20
202.80675
 10
514.79625
 20
202.54725
 10
514.53675
 20
202.23075
 10
514.3440000000001
 20
201.86925
 10
514.2255
 20
201.47775
 10
514.1849999999999
 20
201.0705
 10
514.2255
 20
200.66325
 10
514.3440000000001
 20
200.27175
 10
514.53675
 20
199.91025
 10
514.79625
 20
199.59375
 10
515.11275
 20
199.33425
 10
515.47425
 20
199.1415
 10
515.86575
 20
199.023
 10
516.273
 20
198.9825
 10
516.34875
 20
198.99
 10
516.68025
 20
199.023
 10
517.07175
 20
199.1415
 10
517.43325
 20
199.33425
 10
517.7497499999999
 20
199.59375
 10
518.00925
 20
199.91025
 10
518.202
 20
200.27175
 10
518.3205
 20
200.66325
 10
518.3205
 20
200.66325
 10
518.361
 20
201.0705
 10
518.3205
 20
201.47775
 10
518.202
 20
201.86925
 10
518.00925
 20
202.23
 10
517.7497499999999
 20
202.5465
 10
517.43325
 20
202.806
 10
517.07175
 20
202.99875
 10
516.68025
 20
203.118
 10
516.273
 20
203.1585
 10
515.86575
 20
203.118
 10
515.47425
 20
202.9995
 10
515.11275
 20
202.80675
  0
LWPOLYLINE
  5
57
100
AcDbEntity
  8
profiling
  6
ByLayer
 62
  256
370
   -1
100
AcDbPolyline
 90
   43
 70
    1
 43
0
 10
420.03975
 20
171.84
 10
420.29925
 20
171.5235
 10
420.61575
 20
171.264
 10
420.97725
 20
171.07125
 10
421.35
 20
170.958
 10
421.3695
 20
170.952
 10
421.47525
 20
170.9415
 10
421.77675
 20
170.9115
 10
422.184
 20
170.952
 10
422.5755
 20
171.0705
 10
422.93625
 20
171.26325
 10
423.25275
 20
171.52275
 10
423.51225
 20
171.83925
 10
423.705
 20
172.20075
 10
423.8235
 20
172.59225
 10
423.864
 20
172.9995
 10
423.86175
 20
173.02425
 10
423.86175
 20
173.02425
 10
423.86175
 20
173.02425
 10
423.82425
 20
173.4075
 10
423.70575
 20
173.799
 10
423.513
 20
174.15975
 10
423.2535
 20
174.47625
 10
422.937
 20
174.73575
 10
422.57625
 20
174.9285
 10
422.18475
 20
175.047
 10
421.7775
 20
175.0875
 10
421.37025
 20
175.047
 10
420.978
 20
174.9285
 10
420.801
 20
174.834
 10
420.6165
 20
174.73575
 10
420.4725
 20
174.618
 10
420.3
 20
174.47625
 10
420.0405
 20
174.15975
 10
419.84775
 20
173.799
 10
419.72925
 20
173.4075
 10
419.69175
 20
173.02425
 10
419.69175
 20
173.02425
 10
419.69175
 20
173.02425
 10
419.6895
 20
172.9995
 10
419.73
 20
172.59225
 10
419.8485
 20
172.20075
 10
420.04125
 20
171.83925
  0
LWPOLYLINE
  5
58
100
AcDbEntity
  8
profiling
  6
ByLayer
 62
  256
370
   -1
100
AcDbPolyline
 90
   38
 70
    1
 43
0
 10
436.2795
 20
199.33275
 10
436.641
 20
199.14
 10
437.0325
 20
199.0215
 10
437.43975
 20
198.981
 10
437.847
 20
199.0215
 10
438.2085
 20
199.131
 10
438.23925
 20
199.14
 10
438.60075
 20
199.33275
 10
438.91725
 20
199.59225
 10
439.17675
 20
199.90875
 10
439.3695
 20
200.27025
 10
439.488
 20
200.66175
 10
439.5285
 20
201.069
 10
439.52175
 20
201.13425
 10
439.52175
 20
201.13425
 10
439.52175
 20
201.13425
 10
439.488
 20
201.47625
 10
439.419
 20
201.70275
 10
439.36875
 20
201.86775
 10
439.176
 20
202.22925
 10
438.9165
 20
202.54575
 10
438.6
 20
202.80525
 10
438.2385
 20
202.998
 10
437.847
 20
203.1165
 10
437.43975
 20
203.157
 10
437.0325
 20
203.1165
 10
436.641
 20
202.998
 10
436.2795
 20
202.80525
 10
435.963
 20
202.54575
 10
435.7035
 20
202.22925
 10
435.51075
 20
201.8685
 10
435.39225
 20
201.477
 10
435.35175
 20
201.06975
 10
435.39225
 20
200.6625
 10
435.51075
 20
200.271
 10
435.7035
 20
199.9095
 10
435.963
 20
199.593
 10
436.2795
 20
199.3335
  0
LWPOLYLINE
  5
59
100
AcDbEntity
  8
profiling
  6
ByLayer
 62
  256
370
   -1
100
AcDbPolyline
 90
   38
 70
    1
 43
0
 10
438.23925
 20
143.04675
 10
438.60075
 20
143.2395
 10
438.91725
 20
143.499
 10
439.17675
 20
143.8155
 10
439.3695
 20
144.177
 10
439.488
 20
144.5685
 10
439.488
 20
144.5685
 10
439.52175
 20
144.9105
 10
439.52175
 20
144.9105
 10
439.527
 20
144.966
 10
439.52775
 20
144.97575
 10
439.48725
 20
145.383
 10
439.47375
 20
145.4265
 10
439.368
 20
145.77525
 10
439.17525
 20
146.13675
 10
438.91575
 20
146.45325
 10
438.59925
 20
146.71275
 10
438.23775
 20
146.9055
 10
437.84625
 20
147.024
 10
437.439
 20
147.0645
 10
437.03175
 20
147.024
 10
436.64025
 20
146.9055
 10
436.27875
 20
146.71275
 10
435.96225
 20
146.45325
 10
435.70275
 20
146.13675
 10
435.51
 20
145.77525
 10
435.3915
 20
145.38375
 10
435.351
 20
144.9765
 10
435.3915
 20
144.56925
 10
435.51
 20
144.17775
 10
435.70275
 20
143.81625
 10
435.96225
 20
143.49975
 10
436.27875
 20
143.24025
 10
436.64025
 20
143.0475
 10
437.03175
 20
142.929
 10
437.439
 20
142.8885
 10
437.84625
 20
142.929
 10
438.23775
 20
143.0475
  0
LWPOLYLINE
  5
5A
100
AcDbEntity
  8
profiling
  6
ByLayer
 62
  256
370
   -1
100
AcDbPolyline
 90
   35
 70
    1
 43
0
 10
514.79625
 20
143.49975
 10
515.11275
 20
143.24025
 10
515.47425
 20
143.0475
 10
515.86575
 20
142.929
 10
516.06975
 20
142.90875
 10
516.2737499999999
 20
142.8885
 10
516.681
 20
142.929
 10
517.0725
 20
143.0475
 10
517.434
 20
143.24025
 10
517.7505
 20
143.49975
 10
518.01
 20
143.81625
 10
518.20275
 20
144.17775
 10
518.32125
 20
144.56925
 10
518.36175
 20
144.9765
 10
518.32125
 20
145.38375
 10
518.20275
 20
145.77525
 10
518.01
 20
146.13675
 10
517.7505
 20
146.45325
 10
517.434
 20
146.71275
 10
517.0725
 20
146.9055
 10
516.681
 20
147.024
 10
516.2737499999999
 20
147.0645
 10
515.8665
 20
147.024
 10
515.475
 20
146.9055
 10
515.1135
 20
146.71275
 10
514.797
 20
146.45325
 10
514.5375
 20
146.13675
 10
514.34475
 20
145.77525
 10
514.2262500000001
 20
145.38375
 10
514.2045000000001
 20
145.16175
 10
514.1865
 20
144.9765
 10
514.227
 20
144.56925
 10
514.3455
 20
144.17775
 10
514.5382499999999
 20
143.81625
 10
514.79775
 20
143.49975
  0
LWPOLYLINE
  5
5B
100
AcDbEntity
  8
profiling
  6
ByLayer
 62
  256
370
   -1
100
AcDbPolyline
 90
   36
 70
    1
 43
0
 10
529.94025
 20
140.06025
 10
529.68075
 20
139.74375
 10
529.4880000000001
 20
139.38225
 10
529.3695
 20
138.99
 10
529.329
 20
138.58275
 10
529.3695
 20
138.1755
 10
529.4880000000001
 20
137.784
 10
529.68075
 20
137.4225
 10
529.94025
 20
137.106
 10
530.25675
 20
136.8465
 10
530.61825
 20
136.65375
 10
531.0097500000001
 20
136.53525
 10
531.417
 20
136.49475
 10
531.82425
 20
136.53525
 10
531.84375
 20
136.54125
 10
532.21575
 20
136.6545
 10
532.39275
 20
136.749
 10
532.57725
 20
136.84725
 10
532.89375
 20
137.10675
 10
533.15325
 20
137.42325
 10
533.346
 20
137.78475
 10
533.4645
 20
138.17625
 10
533.505
 20
138.5835
 10
533.4645
 20
138.99075
 10
533.346
 20
139.383
 10
533.15325
 20
139.7445
 10
533.028
 20
139.8975
 10
532.89375
 20
140.061
 10
532.57725
 20
140.3205
 10
532.21575
 20
140.51325
 10
531.82425
 20
140.63175
 10
531.417
 20
140.67225
 10
531.0097500000001
 20
140.63175
 10
530.6174999999999
 20
140.51325
 10
530.256
 20
140.3205
 10
529.9395
 20
140.061
  0
LWPOLYLINE
  5
5C
100
AcDbEntity
  8
profiling
  6
ByLayer
 62
  256
370
   -1
100
AcDbPolyline
 90
   36
 70
    1
 43
0
 10
420.33975
 20
137.595
 10
420.61575
 20
137.3685
 10
420.80025
 20
137.27025
 10
420.97725
 20
137.17575
 10
421.3695
 20
137.05725
 10
421.77675
 20
137.01675
 10
422.184
 20
137.05725
 10
422.57625
 20
137.17575
 10
422.937
 20
137.3685
 10
423.2535
 20
137.628
 10
423.513
 20
137.9445
 10
423.70575
 20
138.306
 10
423.82425
 20
138.69825
 10
423.86475
 20
139.1055
 10
423.82425
 20
139.51275
 10
423.70575
 20
139.90425
 10
423.513
 20
140.26575
 10
423.2535
 20
140.58225
 10
422.937
 20
140.84175
 10
422.57625
 20
141.0345
 10
422.184
 20
141.153
 10
421.77675
 20
141.1935
 10
421.3695
 20
141.153
 10
420.97725
 20
141.0345
 10
420.61575
 20
140.84175
 10
420.29925
 20
140.58225
 10
420.03975
 20
140.26575
 10
419.847
 20
139.90425
 10
419.7285
 20
139.51275
 10
419.688
 20
139.1055
 10
419.7135
 20
138.84975
 10
419.7285
 20
138.69825
 10
419.847
 20
138.306
 10
420.03975
 20
137.9445
 10
420.29925
 20
137.628
 10
420.33975
 20
137.595
  0
LWPOLYLINE
  5
5D
100
AcDbEntity
  8
profiling
  6
ByLayer
 62
  256
370
   -1
100
AcDbPolyline
 90
   33
 70
    1
 43
0
 10
419.84625
 20
207.744
 10
419.72775
 20
207.3525
 10
419.68725
 20
206.94525
 10
419.72775
 20
206.538
 10
419.84625
 20
206.1465
 10
420.039
 20
205.78575
 10
420.2985
 20
205.46925
 10
420.615
 20
205.20975
 10
420.9765
 20
205.017
 10
421.36875
 20
204.8985
 10
421.776
 20
204.858
 10
422.18325
 20
204.8985
 10
422.5755
 20
205.017
 10
422.93625
 20
205.20975
 10
423.25275
 20
205.46925
 10
423.51225
 20
205.78575
 10
423.705
 20
206.1465
 10
423.8235
 20
206.538
 10
423.864
 20
206.94525
 10
423.8235
 20
207.3525
 10
423.705
 20
207.744
 10
423.51225
 20
208.1055
 10
423.25275
 20
208.422
 10
422.93625
 20
208.6815
 10
422.5755
 20
208.87425
 10
422.18325
 20
208.99275
 10
421.776
 20
209.03325
 10
421.36875
 20
208.99275
 10
420.9765
 20
208.87425
 10
420.615
 20
208.6815
 10
420.2985
 20
208.422
 10
420.039
 20
208.1055
 10
419.84625
 20
207.74475
  0
LWPOLYLINE
  5
5E
100
AcDbEntity
  8
profiling
  6
ByLayer
 62
  256
370
   -1
100
AcDbPolyline
 90
   39
 70
    1
 43
0
 10
616.20075
 20
171.2115
 10
616.6065
 20
170.71725
 10
617.1007499999999
 20
170.3115
 10
617.66475
 20
170.01
 10
618.2325
 20
169.8375
 10
618.2775
 20
169.824
 10
618.91425
 20
169.761
 10
619.551
 20
169.824
 10
619.61175
 20
169.84275
 10
620.163
 20
170.01
 10
620.56575
 20
170.22525
 10
620.727
 20
170.3115
 10
621.2212500000001
 20
170.71725
 10
621.627
 20
171.2115
 10
621.9285
 20
171.7755
 10
622.1145
 20
172.3875
 10
622.1775
 20
173.02425
 10
622.1145
 20
173.661
 10
621.9285
 20
174.273
 10
621.627
 20
174.837
 10
621.2212500000001
 20
175.33125
 10
621.1695
 20
175.37325
 10
620.7262500000001
 20
175.737
 10
620.16225
 20
176.0385
 10
619.55025
 20
176.2245
 10
618.9135
 20
176.2875
 10
618.27675
 20
176.2245
 10
617.66475
 20
176.0385
 10
617.1007499999999
 20
175.737
 10
616.6065
 20
175.33125
 10
616.20075
 20
174.837
 10
615.8992500000001
 20
174.273
 10
615.71325
 20
173.661
 10
615.6682499999999
 20
173.2005
 10
615.651
 20
173.02425
 10
615.67725
 20
172.7565
 10
615.71325
 20
172.3875
 10
615.8992500000001
 20
171.7755
 10
616.20075
 20
171.2115
  0
LWPOLYLINE
  5
5F
100
AcDbEntity
  8
profiling
  6
ByLayer
 62
  256
370
   -1
100
AcDbPolyline
 90
   37
 70
    1
 43
0
 10
598.19925
 20
198.32775
 10
597.83775
 20
198.5205
 10
597.44625
 20
198.639
 10
597.039
 20
198.6795
 10
596.63175
 20
198.639
 10
596.331
 20
198.5475
 10
596.2395
 20
198.51975
 10
596.154
 20
198.474
 10
595.878
 20
198.32625
 10
595.5615
 20
198.06675
 10
595.302
 20
197.75025
 10
595.10925
 20
197.38875
 10
594.99075
 20
196.99725
 10
594.95025
 20
196.59
 10
594.99075
 20
196.18275
 10
594.99075
 20
196.18275
 10
595.10925
 20
195.79125
 10
595.302
 20
195.42975
 10
595.5615
 20
195.11325
 10
595.878
 20
194.85375
 10
596.2395
 20
194.661
 10
596.631
 20
194.5425
 10
597.0382499999999
 20
194.502
 10
597.4455
 20
194.5425
 10
597.837
 20
194.661
 10
598.1985
 20
194.85375
 10
598.515
 20
195.11325
 10
598.7745
 20
195.42975
 10
598.96725
 20
195.79125
 10
599.08575
 20
196.18275
 10
599.1255
 20
196.59
 10
599.08575
 20
196.99725
 10
598.96725
 20
197.38875
 10
598.7745
 20
197.75025
 10
598.71525
 20
197.823
 10
598.515
 20
198.0675
 10
598.1985
 20
198.327
  0
ENDSEC
  0
SECTION
  2
OBJECTS
  0
DICTIONARY
  5
C
330
0
100
AcDbDictionary
281
    1
  3
ACAD_GROUP
350
D
  0
DICTIONARY
  5
D
330
C
100
AcDbDictionary
281
    1
  0
ENDSEC
  0
EOF
